Log in

One click and you are in

Login with Facebook Login with Google

Why sign up and log in

Guitar Tabs Explorer
R5 bass tabs for Love me like that

Bass tabs

Tuning: Standard (E A D G)


Intro: (0:00-0:09)
G|--------------------------------|-------------------------------------|
D|--------------------------------|-------------------------------------|
A|-2/-5--5--5---5-5---5--5--5---5-|-------------------------------------|
E|--------------------------------|-5-6-7--7--7---7-7---7--7--7---3-3-5-|
Verse: (0:10-0:44)
G|---------------------------------|---------------------------------|
D|---------------------------------|---------------------------------|
A|-5--5--5---5-5---5--5--5---5-----|---------------------------------| x3
E|-----------------------------5-6-|-7--7--7---7-7---7--7--7---3-3-5-|

G|---------------------------------|-------------------|
D|---------------------------------|-------------------|
A|-5--5--5---5-5---5--5--5---5-----|-------------------|
E|-----------------------------5-6-|-7--7--7---7-7---7-|


Chorus: (0:47-1:05)
G|---------------------------------|---------------------------------|
D|---------------------------------|---------------------------------|
A|-5--5--5---5-5---5--5--5---5-----|---------------------------------|
E|-----------------------------5-6-|-7--7--7---7-7---7--7--7---3-3-5-|

G|---------------------------------|-----------------------------------|
D|---------------------------------|-----------------------------------|
A|-5--5--5---5-5---5--5--5---5-----|---------------------------------5-|
E|-----------------------------5-6-|-7--7--7---7-7---7--7--7---3-3-5---|


Verse 2: (1:05-1:40)
G|-----------------------------------------------------|
D|-----------------------------------------------------|
A|-----5--5--5---5-------------------------------------|
E|-1-/-------------5-6-7--7--7---7-7---7--7--7---3-3-5-|

G|---------------------------------|---------------------------------|
D|---------------------------------|---------------------------------|
A|-5--5--5---5-5---5--5--5---5-----|---------------------------------| x2
E|-----------------------------5-6-|-7--7--7---7-7---7--7--7---3-3-5-|

G|---------------------------------|-------------------|
D|---------------------------------|-------------------|
A|-5--5--5---5-5---5--5--5---5-----|-------------------|
E|-----------------------------5-6-|-7--7--7---7-7---7-|

Chorus 2 & Guitar solo: (1:42-2:19)
G|---------------------------------|---------------------------------|
D|---------------------------------|---------------------------------|
A|-5--5--5---5-5---5--5--5---5-----|---------------------------------| x4
E|-----------------------------5-6-|-7--7--7---7-7---7--7--7---3-3-5-|


Bridge: (2:20-2:27)
G|---------------------------------|---------------------|
D|---------------------------------|---------------------|
A|---------------------------------|---------------------|
E|-3--3--3---3-3---3--3--3---3-5h7-|-5--5--5---5-5---5-\-|


Chorus 3: (2:29-2:47)
G|---------------------------------|---------------------------------|
D|---------------------------------|---------------------------------|
A|-5--5--5---5-5---5--5--5---5-----|---------------------------------| x2
E|-----------------------------5-6-|-7--7--7---7-7---7--7--7---3-3-5-|


Outro: (2:48-3:20)
G|---------------------------------|---------------------------------|
D|---------------------------------|---------------------------------|
A|-5--5--5---5-5---5--5--5---5-----|---------------------------------| (till fade out)
E|-----------------------------5-6-|-7--7--7---7-7---7--7--7---3-3-5-|

************************************

| h  Hammer-on
| /  Slide up
| \  Slide down

************************************

Almost there ...

Sign in to get your own page with links to favourite songs and more. You are just one click away...

Login with Facebook Login with Google