Log in

One click and you are in

Login with Facebook Login with Google

Why sign up and log in

Guitar Tabs Explorer
R5 bass tabs for Loud acoustic

Bass tabs

Tuning: Standard (E A D G)

Difficulty: Novice


Intro & verse:
No bass still. The bass enters at the pre-chorus.
Pre-chorus: (0:32-0:40)
G|-------------------|------------|
D|-------------------|------------|
A|----------6--------|------------|
E|-8----6--------4---|-8----6---4-|


Chorus: (0:43-1:15)
G|---------------------|
D|---------------------|
A|------------6--------| (x6)
E|-8----6--6------4--4-|


Pre-chorus 2: (1:25-1:33)
G|------------------|------------|
D|------------------|------------|
A|------------6-----|------------|
E|-8----6--6--------|-8----6---4-|


Chorus 2: (1:36-2:07)
G|---------------------|
D|---------------------|
A|------------6--------| (x6)
E|-8----6--6------4--4-|


Bridge: (2:08-2:27)
G|---------------------|
D|---------------------|
A|------------6--------| (x2)
E|-8----6--6------4--4-|

G|----------------|-----------------|-----------------|
D|----------------|-----------------|-----------------|
A|----------------|-6--6--6---------|--------------6~-|
E|-8--8--8--6--6--|----------4--4-/-|-8--8--8--6------|


Chorus 3: (2:39-3:12)
G|-----|
D|-----|
A|-----|
E|-14\-|

G|---------------------|
D|---------------------|
A|------------6--------| (x6)
E|-8----6--6------4--4-|

************************************

| /  Slide up
| \  Slide down
| ~  Vibrato

************************************

Almost there ...

Sign in to get your own page with links to favourite songs and more. You are just one click away...

Login with Facebook Login with Google