Guitar Tabs Explorer
R5 bass tabs for Lightning strikes

Lightning Strikes bass tab by R5

R5 bass tabs for Lightning strikes

Bass tabs

  • Difficulty: Intermediate
Key: Bbm

🎸 Intro:
 (0:00-0:11)
G|---------------------|-------------------|--------------|
D|-----------4-6--6-6--|-6-4---------------|----------4---|
A|-6--6----6-----------|-----6-----------4-|-6--6-6-----6-| x2
E|---------------------|--------6--6---6---|--------------|

🎸 Verse 1: (0:12-0:22)
G|-----------------|----------------|----------------|
D|-----------------|-4--------------|-----------4----|
A|-4-6-----4-6-----|----4---4-6-----|-1/4-6--------4-|
E|-----------------|----------------|----------------|


🎸 Pre-Chorus 1: (0:23-0:33)
G|-------------|-------------|-------------|-------------|-------------|------------|
D|-------------|-------------|-------------|-------------|-------------|------------|
A|-2--2--2--2--|-2--2--2--2--|-2--2--2--2--|-2--2--2--2--|-------------|------------|
E|-------------|-------------|-------------|-------------|-4--4--4--4--|-4--4--4--4-|

G|-------------|-----------------|
D|-------------|-----------------|
A|-------------|-----------------|
E|-6--6--6--6/-|-18--18--18--18\-|


🎸 Chorus 1: (0:34-0:56)
G|-------------|-------------------|------------|---------------|
D|-----------4-|-6-6-6-6-6-6-4-----|------------|-----------4---|
A|-6--6----6---|---------------6---|----------4-|-6-6-6-6-6---6-| x4
E|-------------|-------------------|-6--6---6---|---------------|
🎸 Post-Chorus 1: (0:57-1:07)
G|---------------------|-------------------|--------------|
D|-----------4-6--6-6--|-6-4---------------|----------4---|
A|-6--6----6-----------|-----6-----------4-|-6--6-6-----6-|
E|---------------------|--------6--6---6---|--------------|

G|---------------------|-------------------|---------------|
D|-----------4-6--6-6--|-6-4---------------|----------4----|
A|-6--6----6-----------|-----6-----------4-|-6--6-6-----6\-|
E|---------------------|--------6--6---6---|---------------|


🎸 Verse 2: (1:08-1:30)
G|---------------------|----------------|------------------|-----------------|---------------------|
D|---------------------|-4--------------|-----------4------|-------4---------|---------4-----------|
A|-4-6\-----1/-4-6-----|----4---4-6-----|-1/4-6--------4---|-4-6-----6---4---|-4-6--------4---4-6\-|
E|---------------------|----------------|------------------|-----------------|---------------------|

G|-----------------------|
D|-----------------------|
A|-------0---1---2--3--4-|
E|-2/4-------------------|


🎸 Pre-Chorus 2: (1:31-1:41)
G|-------------|-------------|-------------|-------------|-------------|------------|
D|-------------|-------------|-------------|-------------|-------------|------------|
A|-2--2--2--2--|-2--2--2--2--|-2--2--2--2--|-2--2--2--2--|-------------|------------|
E|-------------|-------------|-------------|-------------|-4--4--4--4--|-4--4--4--4-|

G|-------------|-----------------|
D|-------------|-----------------|
A|-------------|-----------------|
E|-6--6--6--6/-|-18--18--18--18\-|


🎸 Chorus 2: (1:42-2:04)
G|-------------|-------------------|------------|---------------|
D|-----------4-|-6-6-6-6-6-6-4-----|------------|-----------4---|
A|-6--6----6---|---------------6---|----------4-|-6-6-6-6-6---6-| x4
E|-------------|-------------------|-6--6---6---|---------------|


🎸 Bridge: (2:05-2:21)
G|------------------------|------------------------|-----------------|-----------------|
D|------------------------|------------------------|-----------------|-----------------|
A|-4--4---4/-16-16-16---\-|-5--5---5/-17-17-17---\-|-6--6----4--4----|-2--2----2-2-2-2-|
E|------------------------|------------------------|-----------------|-----------------|

G|-------------|-------------|-------------|
D|-------------|-------------|-------------|
A|-4--4-----5/-|-17-17-17-17-|-17-17-17-17-|
E|-------------|-------------|-------------|


🎸 Chorus 3: (2:33-2:43)
G|-------------|-------------------|------------|---------------|
D|-----------4-|-6-6-6-6-6-6-4-----|------------|-----------4---|
A|-6--6----6---|---------------6---|----------4-|-6-6-6-6-6---6-| x2
E|-------------|-------------------|-6--6---6---|---------------|


Guitar 🎸 Solo: (2:44-3:06)
G|-------------|-------------------|------------|---------------|
D|-----------4-|-6-6-6-6-6-6-4-----|------------|-----------4---|
A|-6--6----6---|---------------6---|----------4-|-6-6-6-6-6---6-| x4
E|-------------|-------------------|-6--6---6---|---------------|


🎸 Outro: (3:07-3:27)
G|-------------|-------------------|------------|---------------|
D|-----------4-|-6-6-6-6-6-6-4-----|------------|-----------4---|
A|-6--6----6---|---------------6---|----------4-|-6-6-6-6-6---6-| x3
E|-------------|-------------------|-6--6---6---|---------------|

G|-------------|-------------|------------|
D|-----------4-|-6-6-6-6-6-6-|-4----------|
A|-6--6----6---|-------------|---6--------|
E|-------------|-------------|-------6--6-|


************************************

| /  Slide up
| \  Slide down

************************************
ⓘ Bass guitar tab for 'Lightning Strikes' by R5, a pop-rock band formed in 2009 from Los Angeles, California, USA