Log in

One click and you are in

Login with Facebook Login with Google

Why sign up and log in

Guitar Tabs Explorer
R5 bass tabs for I want u bad

Bass tabs

Tuning: Standard (E A D G)


Intro & verse: No bass still. The bass enters at the chorus.
Chorus: (0:28-1:06)
G|---------------------------------|----------------------------|
D|---------------------------------|----------------------------|
A|-4--4--4-------------------------|----------------------------|
E|----------4--6---6--6--6--4--2---|-2--2--2--6--4--4-4---4/12\-|

G|---------------------------------|------------------------------|
D|---------------------------------|------------------------------|
A|-4--4--4-------------------------|------------------------------| x2
E|----------4--6---6--6--6--4--2---|-2--2--2--6--4--4-4---4--4--4-|

G|---------------------------------|---------------------------|
D|---------------------------------|----------------------6-6\-|
A|-4--4--4-------------------------|---------------------------|
E|----------4--6---6--6--6--4--2---|-2--2--2--6--4--4-4--------|


Verse 2: (1:16-1:25)
G|---------------------------|--------------------------|
D|---------------------------|--------------------------|
A|-4----4-4------------------|--------------------------|
E|-------------6-6----6-6----|-2----2-2----4----4--4--4-|


Chorus 2: (1:26-2:04)
G|---------------------------------|---------------------------|
D|---------------------------------|---------------------------|
A|-4--4--4-------------------------|---------------------------|
E|----------4--6---6--6--6--4--2---|-2--2--2--6--4--4-4--4/12\-|

G|---------------------------------|------------------------------|
D|---------------------------------|------------------------------|
A|-4--4--4-------------------------|------------------------------| x2
E|----------4--6---6--6--6--4--2---|-2--2--2--6--4--4-4---4--4--4-|

G|---------------------------------|---------------------------|
D|---------------------------------|----------------------6-6\-|
A|-4--4--4-------------------------|---------------------------|
E|----------4--6---6--6--6--4--2---|-2--2--2--6--4--4-4--------|

Bridge: (2:14-2:23)
G|-------|
D|-------|
A|-------|
E|-4/12\-|


Chorus 3: (2:24-3:01)
G|---------------------------------|----------------------------|
D|---------------------------------|----------------------------|
A|-4--4--4-------------------------|----------------------------|
E|----------4--6---6--6--6--4--2---|-2--2--2--6--4--4-4---4/12\-|

G|---------------------------------|------------------------------|
D|---------------------------------|------------------------------|
A|-4--4--4-------------------------|------------------------------| x2
E|----------4--6---6--6--6--4--2---|-2--2--2--6--4--4-4---4--4--4-|

G|---------------------------------|---------------------------|
D|---------------------------------|----------------------6-6\-|
A|-4--4--4-------------------------|---------------------------|
E|----------4--6---6--6--6--4--2---|-2--2--2--6--4--4-4--------|

************************************

| h  Hammer-on
| p  Pull-off
| /  Slide up
| \  Slide down
| ~  Vibrato

************************************

Almost there ...

Sign in to get your own page with links to favourite songs and more. You are just one click away...

Login with Facebook Login with Google