Log in

One click and you are in

Login with Facebook Login with Google

Why sign up and log in

Guitar Tabs Explorer
R5 bass tabs for I know you got away

Bass tabs

Tuning: Standard (E A D G)

Difficulty: Novice


Intro & verse: (0:00-36)
G|----------------------------------|
D|-4---2-4--------------------------|
A|---------4---2-4-2--0---0-2-4-2-0-|(x7)
E|----------------------------------|

G|----------------------|
D|-4---2-4--------------|
A|---------4---2-4-2--0-|
E|----------------------|
Chorus: (0:38-1:01)
G|--------------------------|
D|--------------------------|
A|--------4---4--------5--5-|(x2)
E|-5---5---------2--2-------|

G|------------------------|
D|------------------------|
A|----------------------5-|
E|-5---5--4---4--2---2----|

G|-----------------------|
D|-----------------------|
A|--------4---4--------5-|
E|-5---5---------2--2----|

G|------------------------|
D|------------------------|
A|-2---2---2-5---5-7--7-7-|
E|------------------------|

Verse 2: (1:02-1:34)
G|----------------------------------|
D|-4---2-4--------------------------|
A|---------4---2-4-2--0---0-2-4-2-0-|(x6)
E|----------------------------------|

G|----------------------|
D|-4---2-4--------------|
A|---------4---2-4-2--0-|
E|----------------------|


Chorus: (1:36-1:59)
G|--------------------------|
D|--------------------------|
A|--------4---4--------5--5-|(x2)
E|-5---5---------2--2-------|

G|------------------------|
D|------------------------|
A|----------------------5-|
E|-5---5--4---4--2---2----|

G|-----------------------|
D|-----------------------|
A|--------4---4--------5-|
E|-5---5---------2--2----|

G|------------------------|
D|------------------------|
A|-2---2---2-5---5-7--7-7-|
E|------------------------|


Bridge: (2:00-2:19)
G|----------------------------------|
D|----------------------------------|
A|-----0--2---0-2--4-2--0-2--4-2--0-|
E|-2--------------------------------|

G|-------------------------------|
D|-------------------------------|
A|-----0--2---0-2--4-2--0-2--4-2-|
E|-2-----------------------------|

G|----------------------------|
D|----------------------------|
A|-9---9--8---8--7---7--6---6-|
E|----------------------------|

G|------------------------------------------------|
D|------------------------------------------------|
A|-5--5-5--5-5--5-5--5/17--17-17--17--7-7-7-7-7-7-|
E|------------------------------------------------|


Break: No bass


Chorus 3: (2:29-3:07)
G|--------------------------|
D|--------------------------|
A|--------4---4--------5--5-|(x2)
E|-5---5---------2--2-------|

G|------------------------|
D|------------------------|
A|----------------------5-|
E|-5---5--4---4--2---2----|

G|--------------------------|
D|--------------------------|
A|--------4---4--------5--5-|(x2)
E|-5---5---------2--2-------|

G|------------------------|
D|------------------------|
A|----------------------5-|
E|-5---5--4---4--2---2----|

G|-----------------------|
D|-----------------------|
A|--------4---4--------5-|
E|-5---5---------2--2----|

G|--------------------------|
D|--------------------------|
A|-2---2---2-5---5-7--7-7-7-|
E|--------------------------|

Almost there ...

Sign in to get your own page with links to favourite songs and more. You are just one click away...

Login with Facebook Login with Google