Log in

One click and you are in

Login with Facebook Login with Google

Why sign up and log in

Guitar Tabs Explorer
R5 bass tabs for I cant say im in love

Bass tabs

Tuning: Standard (E A D G)

Difficulty: Novice


Intro: (0:17-0:22)
G|----------------------------------------------|
D|----------------------------------------------|
A|-6------4--6--4--------4--6--4-----4--6--4----|
E|-----6-----------6--6-----------6-----------6-|
Verse: (0:24-0:43)
G|---------------------------|
D|---------------------------|
A|----4--6--4--------4--6--4-| (x8)
E|-6-----------6--6----------|


Pre-Chorus: (0:44-0:53)
G|---------|
D|---------|
A|---------|
E|-2-----4-|

G|-------------------------------------------|
D|-------------------------------------------|
A|----4--6--4--------4--6--4-----4--6--4-----|
E|-6-----------6--6-----------6-----------6\-|


Chorus: (0:54-1:24)
G|----------------------------------|
D|----------------------------------|
A|---------6-6-6-6------------------| (x3)
E|-6-6-6-6---------4-4-4-4-9--9-8-8-|

G|--------------------------|
D|--------------------------|
A|--------------------------|
E|-2-2-2-2-7-7-7-7-1-1-1-1-1|

G|----------------------------------|
D|----------------------------------|
A|---------6-6-6-6------------------|
E|-6-6-6-6---------4-4-4-4-9--9-8-8-|

G|---------------------------------|
D|---------------------------------|
A|---------6-6-6-6-----------------|
E|-6-6-6-6---------1-1-1-1-1-1-1-1-|

Verse 2: (1:30-1:40)
G|---------------------------|
D|---------------------------|
A|----4--6--4--------4--6--4-| (x4)
E|-6-----------6--6----------|


Pre-Chorus 2: (1:40-1:48)
G|---------|
D|---------|
A|---------| (x2)
E|-2-----4-|


Chorus 2: (1:51-2:20)
G|----------------------------------|
D|----------------------------------|
A|---------6-6-6-6------------------| (x3)
E|-6-6-6-6---------4-4-4-4-9--9-8-8-|

G|--------------------------|
D|--------------------------|
A|--------------------------|
E|-2-2-2-2-7-7-7-7-1-1-1-1-1|

G|----------------------------------|
D|----------------------------------|
A|---------6-6-6-6------------------|
E|-6-6-6-6---------4-4-4-4-9--9-8-8-|

G|---------------------------------|
D|---------------------------------|
A|---------6-6-6-6-----------------|
E|-6-6-6-6---------1-1-1-1-1-1-1-1-|


Bridge: (2:21-2:41)
G|---------------------------------------------------------------|
D|---------------------------------------------------------------|
A|-6-6-6-6-6-6-6-6-----------------4-4-4-4-4-4-4-4---------------|
E|-----------------6-6-6-6-6-6-6-6-----------------4-4-4-4-4-4-4-|

G|-----------------------------------------------------------------|
D|-----------------------------------------------------------------|
A|---------------------------------3-4-3-4-3-4-3-4-3-4-3-4-3-4-3-4-|
E|-2-2-2-2-2-2-2-2-4-4-4-4-4-4-4-4---------------------------------|


Chorus 3: (2:52-3:36)
G|----------------------------------|
D|----------------------------------|
A|---------6-6-6-6------------------| (x4)
E|-6-6-6-6---------4-4-4-4-9--9-8-8-|

G|---------------------------------|
D|---------------------------------|
A|---------------------------------| (x2)
E|-2-2-2-2-7-7-7-7-1-1-1-1-1-1-1-1-|

G|--------------------------|
D|--------------------------|
A|--------------------------|
E|-2-2-2-2-7-7-7-7-1-1-1-1-1|

G|----------------------------------|
D|----------------------------------|
A|---------6-6-6-6------------------|
E|-6-6-6-6---------4-4-4-4-9--9-8-8-|

G|---------------------------|
D|---------------------------|
A|---------6-6-6-6-----------|
E|-6-6-6-6---------1-1-1-1-1-|

************************************

| \  Slide down

************************************

Almost there ...

Sign in to get your own page with links to favourite songs and more. You are just one click away...

Login with Facebook Login with Google