Log in

One click and you are in

Login with Facebook Login with Google

Why sign up and log in

Guitar Tabs Explorer
R5 bass tabs for Forget about you

Bass tabs

Tuning: Standard (E A D G)

Difficulty: Novice


Intro & Verse:
No bass
Pre-chorus: (0:23-0:39)
G|------------------|-------------------|--------------------|-------------------|
D|------------------|-------------------|----------------7-7-|-------------------|
A|----8-8-8-8-8-----|-------------------|-10-10-10-10-10-----|-8-8-8-8-8-8-8-8-8-|
E|-1/-----------5-5-|-8-8-8-8-8-8-8-8-8-|--------------------|-------------------|

G|---------------|-------------------|--------------------|------------------|
D|---------------|-------------------|----------------7-7-|------------------|
A|-8-8-8-8-8-----|-------------------|-10-10-10-10-10-----|8--8-8-8-8-8-8-8\-|
E|-----------5-5-|-8-8-8-8-8-8-8-8-8-|--------------------|------------------|


Chorus: (0:40-1:05)
G|---------------|------------------|---------------|--------------------|
D|---------------|------------------|---------------|--------------------|
A|-8-8-8-8-8-----|------------------|---------------|--------------------| (x3)
E|-----------5-5-|8-8-8-8-8-8-8-8-8-|-3-3-3-3-3-5-5-|-1-1-1-1-1-1-1-1-1/-|

G|------|
D|------|
A|-8~-\-|
E|------|


Verse 2: (1:12-1:27)
G|------------------|------------------|--------------------|----------------|
D|------------------|------------------|----------------7-7-|----------------|
A|-8~-\-------8~----|------------------|-10-10-10-10-10-----|-8--8-8-8--8-8\-|
E|----------------5-|-8--8-8-8-8-8-8-8-|--------------------|----------------|

Pre-chorus 2: (1:28-1:43)
G|-----------|-----------------------|--------------------|-------------------|
D|-----------|-----------------------|----------------7-7-|-------------------|
A|-8-8-8-8-8-|-----------------------|-10-10-10-10-10-----|-8-8-8-8-8-8-8-8-8-|
E|-----------|-5-5-8-8-8-8-8-8-8-8-8-|--------------------|-------------------|

G|---------------|---------------------------------------7h9-7--------|
D|---------------|---------------------------------7-7---------9------|
A|-8-8-8-8-8-----|------------------10-10-10-10-10-----8---------8~-\-|
E|-----------5-5-|8-8-8-8-8-8-8-8-8-----------------------------------|


Chorus 2: (1:44-2:15)
G|---------------|-------------------|---------------|------------------|
D|---------------|-------------------|---------------|------------------|
A|-8-8-8-8-8-----|-------------------|---------------|------------------|(x4)
E|-----------5-5-|-8-8-8-8-8-8-8-8-8-|-3-3-3-3-3-5-5-|1-1-1-1-1-1-1-1-1-|


Bridge: (2:16-2:37)
G|------------------------|-----------------|-----------------|-----------------|
D|------------------------|-----------------|-----------------|-----------------|
A|------------------------|-5-5-5-5-5-5-5-5-|-----------------|-----------------|
E|-1-1-1-1-1-1-1-1-1-1-1/-|-----------------|-5-5-5-5-5-5-5-5-|-3-3-3-3-3-3-3-3-|

G|-------------|
D|-------------|
A|-8~-\-----8\-|
E|-------------|


Chorus 3: (2:40-3:)
G|---------------|-------------------|---------------|--------------------|
D|---------------|-------------------|---------------|--------------------|
A|-8-8-8-8-8-----|-------------------|---------------|--------------------| (x5)
E|-----------5-5-|-8-8-8-8-8-8-8-8-8-|-3-3-3-3-3-5-5-|-1-1-1-1-1-1-1-1-1/-|

G|---------------|-------------------|---------------|
D|---------------|-------------------|---------------|
A|-8-8-8-8-8-----|-------------------|---------------|
E|-----------5-5-|-8-8-8-8-8-8-8-8-8-|-3-3-3-5-5-5-1-|

************************************

| h  Hammer-on
| /  Slide up
| \  Slide down
| ~  Vibrato

************************************

Almost there ...

Sign in to get your own page with links to favourite songs and more. You are just one click away...

Login with Facebook Login with Google