Log in

One click and you are in

Login with Facebook Login with Google

Why sign up and log in

Guitar Tabs Explorer
R5 bass tabs for Easy love

Bass tabs

Tuning: Standard (E A D G)

Difficulty: Novice
Intro: (0:10-0:30)
G|-------------------------------|--------------------------|
D|-------------------------------|--------------------------|
A|-----------------------------5-|------------------3---3-3-|
E|-0--1---0-1--1--1-3--5---5-----|-1---0-1--1--1-3----------|

G|-------------------------------------|------------------------|
D|-----------------------------5--3----|------------------------|
A|-----------------------------------5-|------------------3---3-|
E|-0--1---0-1--1--1-3--5---5-5---------|-1---0-1--1--1-3--------|


Verse 1: (0:31-0:52)
G|----------------------|--------------------------|
D|----------------------|--------------------------|
A|----------------------|------------------3---3-3-|
E|-0--1-----3---5---5---|-1---0-1--1--1-3----------|

G|-------------------------------|--------------------------|
D|-------------------------------|--------------------------|
A|-------------------------------|------------------3---3-3-|
E|-0--1---0-1--1--1-3--5---5-5---|-1---0-1--1--1-3----------|


Chorus: (0:53-1:13)
G|-------------------------------|--------------------------|
D|-------------------------------|--------------------------|
A|-----------------------------5-|------------------3---3-3-|
E|-0--1---0-1--1--1-3--5---5-----|-1---0-1--1--1-3----------|

G|-------------------------------------|------------------------|
D|-----------------------------5--3----|------------------------|
A|-----------------------------------5-|------------------3---3-|
E|-0--1---0-1--1--1-3--5---5-5---------|-1---0-1--1--1-3--------|

Verse 2: (1:14-1:35)
G|----------------------|--------------------------|
D|----------------------|--------------------------|
A|----------------------|------------------3---3-3-|
E|-0--1-----3---5---5---|-1---0-1--1--1-3----------|

G|--------------------------------|---------------------------|
D|--------------------------------|---------------------------|
A|--------------------------------|------------------3---3--3-|
E|-0--1---0-1--1--1-3--5---5--5---|-1---0-1--1--1-3-----------|


Chorus 2: (1:36-1:56)
G|-------------------------------|--------------------------|
D|-------------------------------|--------------------------|
A|-----------------------------5-|------------------3---3-3-|
E|-0--1---0-1--1--1-3--5---5-----|-1---0-1--1--1-3----------|

G|-------------------------------------|--------------------------|
D|-----------------------------5--3----|--------------------------|
A|-----------------------------------5-|------------------3---3-3-|
E|-0--1---0-1--1--1-3--5---5-5---------|-1---0-1--1--1-3----------|


Bridge: (1:57-2:15)
G|---------------------------|
D|---------------------------|
A|---------------------------| (x2)
E|-3---3--3---1---0-1--1---1-|

G|---------------|-----------------|-------------|
D|---------------|-----------------|-------------|
A|---------------|-----------------|-------------|
E|-3---3--3---3--|-1---0-1--1---1--|-1---1--1--1-|


Chorus 3: (2:42-3:03)
G|-----------------|------------------------|--------------------------|
D|-----------------|------------------------|--------------------------|
A|-----------------|----------------------5-|------------------3---3-3-|
E|-0-0-0-0-0-0-1---|-0-1--1--1-3--5---5-----|-1---0-1--1--1-3----------|

G|-------------------------------------|------------------------|
D|-----------------------------5--3----|------------------------|
A|-----------------------------------5-|------------------3---3-|
E|-0--1---0-1--1--1-3--5---5-5---------|-1---0-1--1--1-3--------|


Outro: (3:04-3:22)
G|-------------------------------|--------------------------|
D|-------------------------------|--------------------------|
A|-----------------------------5-|------------------3---3-3-|
E|-0--1---0-1--1--1-3--5---5-----|-1---0-1--1--1-3----------|

G|-------------------------------------|-----------------|
D|-----------------------------5--3----|-----------------|
A|-----------------------------------5-|-----------------|
E|-0--1---0-1--1--1-3--5---5-5---------|-1---0-1--1--1-3-|

Almost there ...

Sign in to get your own page with links to favourite songs and more. You are just one click away...

Login with Facebook Login with Google