Guitar Tabs Explorer
R5 bass tabs for Do it again

Bass tabs

  • Difficulty: Beginner
Key: F

🎸 Intro:

No bass still. The bass enters at the
Verse 1.



🎸 Verse 1: (0:16-0:30)
G|-----------------|-----------------|-----------------|-----------------|
D|-----------------|-----------------|-----------------|-----------------|
A|-5-5-5-5-5-5-5-5-|-----------------|-8-8-8-8-8-8-8-8-|-7-7-7-7-7-7-7-7-| x2
E|-----------------|-6-6-6-6-6-6-6-6-|-----------------|-----------------|


🎸 Pre-Chorus 1: (0:31-0:38)
G|-----------------|-----------------|-------------------------|-------------------|
D|-8-8-8-8-8-8-8-8-|-8-8-8-8-8-8-8-8-|-10-10-10-10-10-10-10-10-|-10-10-10-10-10-10-|
A|-----------------|-----------------|-------------------------|-------------------|
E|-----------------|-----------------|-------------------------|-------------------|


🎸 Chorus 1: (0:39-1:09)
G|-----------------|-----------------|-----------------|-----------------|-----------------|-----------------|
D|-----------------|-----------------|-----------------|-----------------|-----------------|-----------------|
A|-8-8-8-8-8-8-8-8-|-----------------|-5-5-5-5-5-5-5-5-|-----------------|-----------------|-3-3-3-3-3-3-3-3-|
E|-----------------|-6-6-6-6-6-6-6-6-|-----------------|-6-6-6-6-6-6-6-6-|-1-1-1-1-1-1-1-1-|-----------------|

G|-----------------|-----------------|-----------------|-----------------|-----------------|-----------------|
D|-----------------|-----------------|-----------------|-----------------|-----------------|-----------------|
A|-----------------|-----------------|-8-8-8-8-8-8-8-8-|-----------------|-5-5-5-5-5-5-5-5-|-----------------|
E|-6-6-6-6-6-6-6-6-|-6-6-6-6-6-6-6-6-|-----------------|-6-6-6-6-6-6-6-6-|-----------------|-6-6-6-6-6-6-6-6-|

G|-----------------|-----------------|-------------------|
D|-----------------|-----------------|-------------------|
A|-----------------|-3-3-3-3-3-3-3-3-|-------------------|
E|-1-1-1-1-1-1-1-1-|-----------------|-6-6-6-6-6-6-6-6-6-|
🎸 Post-Chorus 1: (1:11-1:18)
G|--------------------|-----------------|-----------------|-----------------|
D|--------------------|-----------------|-----------------|-----------------|
A|--------------------|-----------------|-----------------|-----------------|
E|-1-1-1-1-1-1-1-1-1/-|-8-8-8-8-8-8-8-8-|-6-6-6-6-6-6-6-6-|-6-6-6-6-6-6-6-6-|


🎸 Verse 2: (1:19-1:33)
G|-----------------|-----------------|-----------------|-----------------|
D|-----------------|-----------------|-----------------|-----------------|
A|-5-5-5-5---5-5-5-|-----------------|-8-8-8-8---8-8-8-|-7-7-7-7---7-7-7-| x2
E|-----------------|-6-6-6-6---6-6-6-|-----------------|-----------------|


🎸 Pre-Chorus 2: (1:34-1:41)
G|-----------------|-----------------|-------------------------|-------------------|
D|-8-8-8-8-8-8-8-8-|-8-8-8-8-8-8-8-8-|-10-10-10-10-10-10-10-10-|-10-10-10-10-10-10-|
A|-----------------|-----------------|-------------------------|-------------------|
E|-----------------|-----------------|-------------------------|-------------------|


🎸 Chorus 2: (1:42-2:13)
G|-----------------|-----------------|-----------------|-----------------|-----------------|-----------------|
D|-----------------|-----------------|-----------------|-----------------|-----------------|-----------------|
A|-8-8-8-8-8-8-8-8-|-----------------|-5-5-5-5-5-5-5-5-|-----------------|-----------------|-3-3-3-3-3-3-3-3-|
E|-----------------|-6-6-6-6-6-6-6-6-|-----------------|-6-6-6-6-6-6-6-6-|-1-1-1-1-1-1-1-1-|-----------------|

G|-----------------|-----------------|-----------------|-----------------|-----------------|-----------------|
D|-----------------|-----------------|-----------------|-----------------|-----------------|-----------------|
A|-----------------|-----------------|-8-8-8-8-8-8-8-8-|-----------------|-5-5-5-5-5-5-5-5-|-----------------|
E|-6-6-6-6-6-6-6-6-|-6-6-6-6-6-6-6-6-|-----------------|-6-6-6-6-6-6-6-6-|-----------------|-6-6-6-6-6-6-6-6-|

G|-----------------|-----------------|-----------------|-----------------|
D|-----------------|-----------------|-----------------|-----------------|
A|-----------------|-3-3-3-3-3-3-3-3-|-----------------|-----------------|
E|-1-1-1-1-1-1-1-1-|-----------------|-6-6-6-6-6-6-6-6-|-6-6-6-6-6-6-6-6-|


🎸 Bridge: (2:14-2:30)
G|-----------------|-----------------|-----------------|-----------------|
D|-----------------|-----------------|-----------------|-----------------|
A|-5-5-5-5-5-5-5-5-|-----------------|-----------------|-3-3-3-3-3-3-3-3-|
E|-----------------|-6-6-6-6-6-6-6-6-|-1-1-1-1-1-1-1-1-|-----------------|

G|-----------------|-----------------|-----------------|------------------|-------------|-------------|
D|-----------------|-----------------|-----------------|------------------|-------------|-------------|
A|-5-5-5-5-5-5-5-5-|-----------------|-----------------|-3-3-3-3-3-3-3-3/-|-15-15-15-15-|-15-15-15-15-|
E|-----------------|-6-6-6-6-6-6-6-6-|-1-1-1-1-1-1-1-1-|------------------|-------------|-------------|


🎸 Chorus 3: (2:31-2:45)
G|-----------------|-----------------|-----------------|-----------------|-----------------|-----------------|
D|-----------------|-----------------|-----------------|-----------------|-----------------|-----------------|
A|-8-8-8-8-8-8-8-8-|-----------------|-5-5-5-5-5-5-5-5-|-----------------|-----------------|-3-3-3-3-3-3-3-3-|
E|-----------------|-6-6-6-6-6-6-6-6-|-----------------|-6-6-6-6-6-6-6-6-|-1-1-1-1-1-1-1-1-|-----------------|

G|----------------|-----------------|
D|----------------|-8-8-8-8-8-8-8-8-|
A|----------------|-8-8-8-8-8-8-8-8-|
E|6-6-6-6-6-6-6-6-|-6-6-6-6-6-6-6-6-|

(2:47-3:32)
G|-----------------|-----------------|-----------------|-----------------|-----------------|-----------------|
D|-----------------|-----------------|-----------------|-----------------|-----------------|-----------------|
A|-----------------|-----------------|-5-5-5-5-5-5-5-5-|-----------------|-----------------|-3-3-3-3-3-3-3-3-|
E|-1-1-1-1-1-1-1-1-|-6-6-6-6-6-6-6-6-|-----------------|-6-6-6-6-6-6-6-6-|-1-1-1-1-1-1-1-1-|-----------------|

G|-----------------|-----------------|-----------------|-----------------|-----------------|-----------------|
D|-----------------|-----------------|-----------------|-----------------|-----------------|-----------------|
A|-----------------|-----------------|-----------------|-----------------|-5-5-5-5-5-5-5-5-|-----------------|
E|-6-6-6-6-6-6-6-6-|-6-6-6-6-6-6-6-6-|-1-1-1-1-1-1-1-1-|-6-6-6-6-6-6-6-6-|-----------------|-6-6-6-6-6-6-6-6-|

G|-----------------|-----------------|-----------------|-----------------|-----------------|-----------------|
D|-----------------|-----------------|-----------------|-----------------|-----------------|-----------------|
A|-----------------|-3-3-3-3-3-3-3-3-|-5-5-5-5-5-5-5-5-|-----------------|-----------------|-3-3-3-3-3-3-3-3-|
E|-1-1-1-1-1-1-1-1-|-----------------|-----------------|-6-6-6-6-6-6-6-6-|-1-1-1-1-1-1-1-1-|-----------------|

G|-----------------|-----------------|-----------------|-----------------|-------------------|
D|-----------------|-----------------|-----------------|-----------------|-------------------|
A|-----------------|-----------------|-----------------|-3-3-3-3-3-3-3-3-|-------------------|
E|-6-6-6-6-6-6-6-6-|-6-6-6-6-6-6-6-6-|-1-1-1-1-1-1-1-1-|-----------------|-6-6-6-6-6-6-6-6-6-|


************************************

| /  Slide up

************************************
ⓘ Bass guitar tab for 'Do It Again' by R5, a pop-rock band formed in 2009 from Los Angeles, California, USA