Log in

One click and you are in

Login with Facebook Login with Google

Why sign up and log in

Guitar Tabs Explorer
R5 bass tabs for Cali girls

Bass tabs

Tuning: Standard (E A D G)

Difficulty: Novice


Intro & verse:
No bass still. The bass enters at the pre-chorus.
Pre-chorus: (0:22-0:36)
G|---------------------|---------------------|
D|---------------------|---------------------|
A|-------5---5---0-3---|-3-------------------|
E|-3-4-5---------------|-----0-3---3---3---3-|

G|------------------|------------------|
D|------------------|-5-4--------------|
A|-5---5---0-3---3--|-----5------------|
E|------------------|-------3---3----3-|


Chorus: (0:38-1:08)
G|---------------------|
D|---------------------|
A|-5-----3-------------| (x3)
E|-----------3-3---3-3-|

G|---------------------|
D|---------------------|
A|-2-------------------|
E|------2---3--3---5-5-|

G|-------------------|---------------|
D|-------------------|---------------|
A|-5-5-5-5-5-5-5-3-3-|---------------|(x3)
E|-------------------|-3-3-3-3-3-3-3-|

G|-------------------|-------------|
D|-------------------|-------------|
A|-2-2-2-2-2-2-2-----|-------------|
E|---------------2-2-|-3-3-3-3-5-5-|

Verse 2: (1:16-1:31)
G|-----------------------------------------|
D|-----------------------------------------|
A|-------5---5---0-3---3-------------------|
E|-3-4-5-------------------0-3---3---3---3-|

G|-----------------------------------------|
D|------------------5-4--------------------|
A|-5---5---0-3---3------5------------------|
E|-------------------------3---3---3--3--3-|


Pre-chorus 2: (1:32-1:47)
G|-------------------------------------------------------------------------------------------|
D|-------------------------------------------------------------------------------------------|
A|----17-17-17-17-17-17-17-17-15-15-15-15-15-15-15-15-10-10-10-10-10-10-10-10-10-10-10-10-10-|
E|-3/----------------------------------------------------------------------------------------|

G|----------------------------------------------------------|
D|----------------------------------------------------------|
A|-5-5-5-5-5-5-5-5-3-3-3-3-3-3-3-3--------------------------|
E|---------------------------------3-3-3-3-3-3-3/-15----15-|


Chorus 2: (1:48-2:17)
G|---------------------|
D|---------------------|
A|-5-----3-------------| (x3)
E|-----------3-3---3-3-|

G|---------------------|
D|---------------------|
A|-2-------------------|
E|------2---3--3---5-5-|

G|-------------------|---------------|
D|-------------------|---------------|
A|-5-5-5-5-5-5-5-3-3-|---------------|(x3)
E|-------------------|-3-3-3-3-3-3-3-|

G|-------------------|-------------|
D|-------------------|-------------|
A|-2-2-2-2-2-2-2-----|-------------|
E|---------------2-2-|-3-3-3-3-5-5-|


Bridge: (2:25-2:40)
G|----------------------------|-------------------------|----------------------------------------|
D|----------------------------|-------------------------|----------------------------------------|
A|----17-17-17-17-17-17-17-17-|-15-15-15-15-15-15-15-15-|-10-10-10-10-10-10-10-10-10-10-10-10-10-| (x2)
E|-3/-------------------------|-------------------------|----------------------------------------|


Chorus 3: (2:41-3:2)
G|-----------|-----------|
D|-----------|-----------|
A|-5-----3---|-----------| (x3)
E|-----------|-3-3---3-3-|

G|----------|------------|
D|----------|------------|
A|-2--------|------------|
E|------2---|-3--3---5-5-|

G|-------------------|---------------|
D|-------------------|---------------|
A|-5-5-5-5-5-5-5-3-3-|---------------|(x3)
E|-------------------|-3-3-3-3-3-3-3-|

G|-------------------|-------------|
D|-------------------|-------------|
A|-2-2-2-2-2-2-2-----|-------------|
E|---------------2-2-|-3-3-3-3-5-5-|

G|-------------------|---------------|
D|-------------------|---------------|
A|-5-5-5-5-5-5-5-3-3-|---------------|(x3)
E|-------------------|-3-3-3-3-3-3-3-|

G|---------------|-----------|
D|---------------|-----------|
A|-2-2-2-2-2-2-2-|-----------|
E|---------------|-2-2-3-3-3-|

************************************

| /  Slide up
| \  Slide down

************************************

Almost there ...

Sign in to get your own page with links to favourite songs and more. You are just one click away...

Login with Facebook Login with Google