Log in

One click and you are in

Login with Facebook Login with Google

Why sign up and log in

Guitar Tabs Explorer
R5 bass tabs for Aint no way were goin home

Bass tabs

Tuning: Standard (E A D G)

Difficulty: Novice


Intro & verse:
No bass
Chorus: (0:38-0:58)
G|------------------------|
D|------------------------|
A|-4----6--6----2---------| (x4)
E|-------------------2--2-|

Post-chorus: (1:00-1:04)
G|-------------------|
D|-----------------4-|
A|-4----6-----2------|
E|-------------------|


Verse: (1:05-1:23)
G|------------|
D|------------|
A|-4----6/16\-| (x4)
E|------------|


Chorus 2: (1:32-2:04)
G|------------------------|
D|------------------------|
A|-4----6--6----2---------| (x6)
E|-------------------2--2-|

Guitar Solo: (2:16-2:26)
G|------------------------|
D|------------------------|
A|-4----6--6----2---------| (x2)
E|-------------------2--2-|


Chorus 3: (2:27-2:58)
G|------------------------|
D|------------------------|
A|-4----6--6----2---------| (x6)
E|-------------------2--2-|


************************************

| /  Slide up
| \  Slide down

************************************

Almost there ...

Sign in to get your own page with links to favourite songs and more. You are just one click away...

Login with Facebook Login with Google