Log in

One click and you are in

Login with Facebook Login with Google

Why sign up and log in

Guitar Tabs Explorer
Quietdrive tabs for Daddys little girl

Tabs

-----------------------------------------------------------------------------
                  Daddy's Little Girl (Acoustic) - Quiet Drive
-----------------------------------------------------------------------------

Tabbed by : Matty750
Tuning : Standard

Guitar 1


Intro
E-4---4---4---4---5---5---5---5---4---4---4---4--------------5-------------|
B--5---5---5---5---5---5---5---5---5---5---5---5--4---4---7----------------|
G---6---6---6---6---6---6---6---6---4---4---4---4--5---5---5---5-----------|
D---------------------------------------------------6---6---6---6----------|
A--------------------------------------------------------------------------|
E--------------------------------------------------------------------------|


Verse
E-----4-4h5p4-2-0-----------------------2-4-4h5p4-2-4-----------------5----|
B----5------------4-5-4h5p4-2---1-2-4-5----------------5-5-5--4-4-4-7------|
G---6---------------------------------------------------4-4-4--5-5-5-5-5---|
D--6-----------------------------------------------------------------------|
A-4------------------------------------------------------------------------|
E--------------------------------------------------------------------------|

Guitar 2

Intro, Verse, Chorus
E--4--------------5----------------0---------------4-----------------------|
B--5--------------5----------------0---------------4-----------------------|
G--6--------------6----------------1---------------5-----------------------|
D--6--------------7----------------2---------------6-----------------------|
A--4--------------7----------------2---------------6-----------------------|
E--x--------------5----------------0---------------4-----------------------|


Solo
E-0-2-4-4-2-0-4---0-2-4-4-2-0---0-2-4-4-2-0----0-0-4-4-0-0----0-0-4-4-0-0--|
B-----------------------------2-------------0-0------------0-0-------------|
G--------------------------------------------------------------------------|
D--------------------------------------------------------------------------|
A--------------------------------------------------------------------------|
E--------------------------------------------------------------------------|


E---------4-4---------4-4---5-5/9------------------------------------------|
B-----4-4---------4-4------------------------------------------------------|
G-5-5---------5-5----------------------------------------------------------|
D--------------------------------------------------------------------------|
A--------------------------------------------------------------------------|
E--------------------------------------------------------------------------|
ⓘ Guitar tab for 'Daddys Little Girl' by, formed in 2000

Almost there ...

Sign in to get your own page with links to favourite songs and more. You are just one click away...

Login with Facebook Login with Google