Log in

One click and you are in

Login with Facebook Login with Google

Why sign up and log in

Guitar Tabs Explorer
Quiet Riot bass tabs for Cum on feel the noize

Cum On Feel The Noize bass tab by Quiet Riot

Quiet Riot bass tabs for Cum on feel the noize

Bass tabs

cum on and feel the noize


                                   Quiet Rio
Cum on and feel the noiz
list to c.d. for timing and enjoy its a fun song to play


G||-------------------|------------------|------------------|------------------
D||*------------------|------------------|------------------|------------------
A||*------------------|--2-2-2-2-2-2-2-2-|------------------|------------------
E||---3-3-3-3-3-3-3-3-|------------------|--0-0-0-0-0-0-0-0-|--0-0-2-0-3-0-4-0-


------------------|------------------|------------------|------------------
------------------|------------------|------------------|------------------
------------------|--5-5-5-5-5-7-5---|------------------|--5-5-5-5-7-5-----
--5-5-5-5-3-3-3-3-|----------------7-|--5-5-5-5-3-3-3-3-|--------------7-5-


------------------|------------------|------------------|------------------
------------------|------------------|------------------|------------------
------------------|--2-2-2-2-2-2-2-2-|------------------|------------------
--3-3-3-3-3-3-3-3-|------------------|--0-0-0-0-0-0-0-0-|--0-0-2-0-3-0-4-0-


------------------|------------------|------------------|------------------
------------------|------------------|------------------|------------------
------------------|--5-5-5-5-5-5-5-5-|------------------|--5-5-5-5-5-5-5-5-
--5-5-5-5-3-3-3-3-|------------------|--5-5-5-5-3-3-3-3-|------------------

------------------|------------------|----------------------|------------------
------------------|------------------|----------------------|------------------
--7-7-7-7-7-7-7-7-|--5-5-5-5-5-5-5-5-|----------------------|------------------
------------------|------------------|--3------3--2------2--|--0-0-0-0-1-0-2-0-


----------------------|------------------|------------------|------------------
----------------------|------------------|------------------|------------------
----------------------|------------------|------------------|--5-5-5-5-7-5-----
--3------3--2------2--|--0-0-2-0-3-0-4-0-|--5-5-5-5-3-3-3-3-|--------------7-6-


------------------|------------------|----------------------|------------------
------------------|------------------|----------------------|------------------
------------------|--5-5-5-5-7-5-----|----------------------|------------------
--5-5-5-5-3-3-3-3-|--------------7-5-|--3------3--2------2--|--0-0-0-0-1-0-2-0-


----------------------|------------------|------------------|------------------
----------------------|------------------|------------------|------------------
----------------------|------------------|--3-3-3-3-2-2-2-2-|------------------
--3------3--2------2--|--0-0-2-0-3-0-4-0-|------------------|--5-5-5-5-3-3-3-3-


------------------|------------------|------------------|------------------
------------------|------------------|------------------|------------------
--5-5-5-5-5-5-5-5-|--5-5-5-5-5-5-5-5-|--5-5-5-5-5-5-5-5-|--5-5-5-5-5-5-5-5-
------------------|------------------|------------------|------------------


---------------------|-------------------|---------------------
---------------------|-------------------|---------------------
---------------------|-------------------|---------------------
--3--------2------0--|--0----------------|--3--------2------0--


-------------------|------------------|------------------|------------------
-------------------|------------------|------------------|------------------
-------------------|--3-3-3-3-2-2-2-2-|------------------|--5-5-5-5-5-5-5-5-
--0----------------|------------------|--5-5-5-5-3-3-3-3-|------------------


------------------|----------------------|------------------
------------------|----------------------|------------------
--5-5-5-5-5-5-5-5-|----------------------|------------------
------------------|--3------3--2------2--|--0-0-0-0-1-0-2-0-


----------------------|------------------|------------------|------------------
----------------------|------------------|------------------|------------------
----------------------|------------------|------------------|--5-5-5-5-7-5-----
--3------3--2------3--|--0-0-2-0-3-0-4-0-|--5-5-5-5-3-3-3-3-|--------------7-6-


------------------|------------------|---------------------|-------------------
------------------|------------------|---------------------|-------------------
------------------|--5-5-5-5-7-5-----|--3--------2------0--|--0----------------
--5-5-5-5-3-3-3-3-|--------------7-5-|---------------------|-------------------


---------------------|-------------------|----------------------
---------------------|-------------------|----------------------
--3--------2------0--|--0----------------|-------------------7--
---------------------|-------------------|--3------3--2---------


-------------------|-------------------|-------------------|----5---5---4---4-
-------------------|-------------------|-------------------|------------------
--7\---------------|--7\---------------|--7\---------------|--3---3---2---2---
-------------------|-------------------|-------------------|------------------


------------------|------------------|--|
----7---7---------|------------------|--|
------------------|--5-5-5-5-5-5-5-5-|--|
--5---5---3-3-3-3-|------------------|--|

this is it all you have to do is listen to the c.d. for all the timing.
the last eleven bars are played after the first verse and are the bars to the first choru
I'm doing this from memory and had forgot until the end so sorry if this is any troubl
standard tuning EADG
ANY Q's then email me at tcb_3@hotmail.com for the A'

tabbed by Greg Miranda (tcb_3@hotmail.com
ⓘ Bass guitar tab for 'Cum On Feel The Noize' by Quiet Riot, a heavy metal band formed in 1973 from Los Angeles, USA

Almost there ...

Sign in to get your own page with links to favourite songs and more. You are just one click away...

Login with Facebook Login with Google