Log in

One click and you are in

Login with Facebook Login with Google

Why sign up and log in

Guitar Tabs Explorer
Quiet Riot bass tabs for Bang your head

Bass tabs

bang your head (metal health)

tabbed by Greg Mirand
Any Q's email me for A's at tcb_3@hotmail.co
                                   Quiet Rio
Bang your head
bang out the intro and drive the eighth notes to make this song rock standard turning EAD


G||-------------------------|-----------|----------------------|------------|
D||*------------------------|-----------|----------------------|-----------*|
A||*---------------3--------|-----------|-----------3-----3----|-----------*|
E||---5---------------------|--3--------|--3-----------5-------|--5---------|


---------------------|---------------------|------------------
---------------------|---------------------|------------------
---------------------|----------------3----|------------------
--5------------0--3--|--5-5-5-5-5--5-------|--3-3-3-3-3-3-3-3-


---------------------|------------------|---------------------
---------------------|------------------|---------------------
----------3-----3----|------------------|----------------3----
--3-3-3-3----5-------|--5-5-5-5-5-3-3-3-|--5-5-5-5-5--5-------


------------------|---------------------|-------------------------
------------------|---------------------|-------------------------
------------------|----------3-----3----|-------------------------
--3-3-3-3-3-3-3-3-|--3-3-3-3----5-------|--5-5-5-5-5----3----3----

------------------|------------------|------------------
------------------|------------------|------------------
------------------|------------------|--0-0-0-0-0-0-0-0-
--5-5-5-5-5-5-5-5-|--5-5-5-5-5-5-5-3-|------------------


--14--12------------------||-------------------|------------------
----------14--12----------||*------------------|------------------
------------------12--10--||*------------------|------------------
--------------------------||---5-5-5-5-5-5-5-3-|--5-5-5-5-5-5-5-3-


------------------|------------------|------------------|------------------
------------------|------------5---5-|------------------|------------------
------------------|------------------|------------------|------------------
--5-5-5-5-5-5-5-3-|--5-5-5-5-5---3---|--5-5-5-5-5-5-5-3-|--5-5-5-5-5-5-5-3-


------------------|
------------------|
------------------|
--5-5-5-5-5-5-5-3-|
ⓘ Bass guitar tab for 'Bang Your Head' by Quiet Riot, a heavy metal band formed in 1973 from Los Angeles, USA

Almost there ...

Sign in to get your own page with links to favourite songs and more. You are just one click away...

Login with Facebook Login with Google