Log in

One click and you are in

Login with Facebook Login with Google

Why sign up and log in

Guitar Tabs Explorer
Quicksand chords for Simpleton

Chords

TAB:     Simpleton
ARTIST:  Quicksand
ALBUM:   Manic Compression


   Bass line
G-|--------------------------------------------------|
D-|--------------------------------------------------|
A-|--------------------------------------------------|
D-|-12-12-12-10-10-10--5--5--5--3--3--3--0--0--0--0--|

   Chorus
E-|-----------------------|
B-|-----------------------|
G-|-----------------------|
D-|------3---0-3-0--------|
A-|------3---0-3-0--------|
D-|-12b--3---0-3-0--------|

   Rythym part during solo (not the exact num of strums, but you
   get the idea)
E-|------------------------------------------------------------------|
B-|------------------------------------------------------------------|
G-|--7--7--7--7--7--7--7--7--9--9--9--9--11-11-11-11-12-12-12-12-14/-|
D-|--7--7--7--7--7--7--7--7--9--9--9--9--11-11-11-11-12-12-12-12-14/-|
A-|--5--5--5--5--5--5--5--5--7--7--7--7--9--9--9--9--10-10-10-10-12/-|
D-|------------------------------------------------------------------|



Send comments to:  [email protected]
ⓘ Guitar chords for 'Simpleton' by Quicksand, artist.

Almost there ...

Sign in to get your own page with links to favourite songs and more. You are just one click away...

Login with Facebook Login with Google