Log in

One click and you are in

Login with Facebook Login with Google

Why sign up and log in

Guitar Tabs Explorer
Quicksand tabs for Dine alone

Tabs with lyrics

TAB:	   Dine Alone
ARTIST:  Quicksand
ALBUM:   Slip


   Opening                 Verse
E-|-----------------------|----------------------------|
B-|-----------------------|----------------------------|
G-|-----------------------|----------------------------|
D-|-0---------------------|---------7b-----------7b----|
A-|-0---------------------|---------5b-----------5b----|
D-|-0---------------------|--0-0--0-----0-0--0-0----0--|

   Chorus
E-|-------------------------------------------------|
B-|-------------------------------------------------|
G-|-------------------------------------------------|
D-|-------5---------5-------------------------------|
A-|---3---------3---------0--0--0-0-0-0-0-0--0--0---|
D-|-3---3-----3---3-------0--0--0-0-0-0-0-0--0--0---|

   End Chorus             Interlude Start
E-|----------------------|------------------|
B-|----------------------|------------------|
G-|----------------------|--7---------------|
D-|--2-2-2-2-2-2-2-2-2---|--7---------------|
A-|--2-2-2-2-2-2-2-2-2---|--5---------------|
D-|--2-2-2-2-2-2-2-2-2---|------------------|

   Interlude
E-|----------------------------------------------------|---|
B-|--7---8-------7--8-----------7---8------7---8-------|---|
G-|----------7----------7--------------7----------7----|-7-|
D-|----------------------------------------------------|-7-|
A-|----------------------------------------------------|-5-|
D-|----------------------------------------------------|---|

The solo is played over the main riff, then comes the chorus
and that's it.
It's a cinch to pass the time with you
But I can't pass the time alone, can you take it?
And it's true
True, the couple next to you think you look strange
Alone what are your aims?
Or do you have any?
Avoid confusion -- you always know
Always know how much you're paying
I concentrate on what the people say
The couple next to me...
Pass the salt pour it in my wounds
you look like you have no friends
can't keep up with the new trends
sorry -- sorry for myself I don't agree
No, I always go out eating with my best friends
It's less than normal.
Avoid confusion
You always know
Always know how much you're paying
I concentrate on what the people say
I think sometimes...

send comments to:  [email protected]
ⓘ Guitar tab for 'Dine Alone' by Quicksand, artist.

Almost there ...

Sign in to get your own page with links to favourite songs and more. You are just one click away...

Login with Facebook Login with Google