Log in

One click and you are in

Login with Facebook Login with Google

Why sign up and log in

Guitar Tabs Explorer
Quicksand chords for Delusional

Chords

TAB:     Delusional
ARTIST:  Quicksand
ALBUM:   Manic Compression
   Verse					 Chorus (let ring)
E-|---------------------------------|---------------------------------|
B-|---------------------------------|---13---------------13-----------|
G-|---------------------------------|---12---------------12-----------|
D-|---------------------------------|---10---------------10-----------|
A-|---------------------------------|---10---------------10-----------|
D-|---0--0--0--0--0--0--0//10-------|---10---------------10-----------|

   Interlude
E-|----------------------8----------|---------6--------------6--------|
B-|-------------------7-------------|------5--------------5-----------|
G-|----------------5----------------|---3--------------3--------------|
D-|---7-----------------------------|---------------------------------|
A-|---------------------------------|---------------------------------|
D-|---------------------------------|---------------------------------|

   End Part
E-|-------------------------------------|
B-|------3-----3---------2-----2--------|
G-|---2-----2----2----2-----2----2------|
D-|-------------------------------------|
A-|-------------------------------------|
D-|-------------------------------------|



Send comments, corrections to:  [email protected]
ⓘ Guitar chords for 'Delusional' by Quicksand, artist.

Almost there ...

Sign in to get your own page with links to favourite songs and more. You are just one click away...

Login with Facebook Login with Google