Log in

One click and you are in

Login with Facebook Login with Google

Why sign up and log in

Guitar Tabs Explorer
Question Mark And The Mysterians tabs for 96 tears

Guitar tabs with lyrics

96 Tears
? & The Mysterians
(Rudy Martinez)
Riff 1:

v   v    v   v   v   v
--------|----------------|
--------|----------------|
--0-3-5-|7---7---5-3-0---|
--------|----------------|
--------|----------------|
--------|----------------|


Riff 2:

A chord diagramG+G		 A chord diagramEb MajorEb
v   v   v   v    v   v   v   v
----------------|----------------|
----------------|----------------|
4-4-4-4-4-4-4-4-|3-3-3-3-3-3-3-3-|
5-5-5-5-5-5-5-5-|5-5-5-5-5-5-5-5-|
----------------|----------------|
----------------|----------------|
^^^^
omit these 2 notes first time


Riff 3:

A chord diagramG+G		A chord diagramEb MajorEb
v   v   v   v    v   v   v   v
----------------|----------------|
----------------|----------------|
0-----0-------0-|----0-------0---|
--0-2-----0-2---|1-2---1---2-----|
----------------|----------------|
----------------|----------------|



Riff 1

Riff 2

Riff 2

Riff 3

Riff 3

Riff 2

Riff 2

Riff 2

Riff 2

Riff 3

Riff 3

Riff 2

Riff 2

Riff 2

Riff 2

Riff 3

Riff 3

Riff 2

Riff 2

Riff 2

Riff 2

--------------------------------------------------

(no riffs)
A chord diagramE minorEm
//// //// //// //// //// //// //// //// //// ////
(A chord diagramE minorEm)           A chord diagramC majorC
//// //// //// ////

--------------------------------------------------


Riff 2

Riff 2 (w/ first bar 2x)

Riff 2

Riff 3

Riff 3

Riff 2

Riff 2

Riff 2

Riff 2

Riff 3

Riff 3

Riff 2

Riff 2

Riff 2

Riff 3 (repeat riff and fade)

Other versions of 96 Tears

96 tearsChords

Almost there ...

Sign in to get your own page with links to favourite songs and more. You are just one click away...

Login with Facebook Login with Google