Log in

One click and you are in

Login with Facebook Login with Google

Why sign up and log in

Guitar Tabs Explorer
Question Mark And The Mysterians bass tabs for 96 tears

96 Tears bass tab - Question Mark And The Mysterians

Question Mark And The Mysterians bass tabs for 96 tears

Bass tabs

question_mark&the_mysterians/96_tears.btab

Basstab by Jan Bjorklund, Finland;
jani_bjorklund@yahoo.se
You are welcome to request for basstabs!
Bienvenidos a pedirme transcripciones para el bajo!

TablEdited by Jan Bjorklund for John

Tuning : E A D G 	Time Signature: 4/4

 |    |    |    |    |    |    |    |
|--------------------------------|--------------------------------|
|------------------------3---4---|5---------------5---5-----------|
|--------------------5-----------|--------7---5-----------7---5---|
|--------------------------------|--------------------------------|

 |    |    |    |    |    |    |    |
|--------------------------------|--------------------------------|
|--------2---5-----------2---4---|5---5-----------5---5-----------|
|3---3-----------3---3-----------|--------7---5-----------7---5---|
|--------------------------------|--------------------------------|

 |    |    |    |    |    |    |    |
|--------------------------------|--------------------------------|
|--------2---5-----------2---4---|5---5-----------5---5-----------|
|3---3-----------3---3-----------|--------7---5-----------7---5---|
|--------------------------------|--------------------------------|

 |    |    |    |    |    |    |    |
|--------------------------------|--------------------------------|
|--------2---5-----------2---4---|5---5-----------5---5-----------|
|3---3-----------3---3-----------|--------7---5-----------7---5---|
|--------------------------------|--------------------------------|

 |    |    |    |    |    |    |    |
|--------------------------------|--------------------------------|
|--------2---5-----------2---4---|------this continues until------|
|3---3-----------3---3-----------|--------------------------------|
|--------------------------------|--------------------------------|

 |    |    |    |    |    |    |    |
|--------------------------------|--------------------------------|
|------------9---7-----------9---|------------9---7-----------9---|
|7-------------------10--9-------|7-------------------10--9-------|
|--------------------------------|--------------------------------|

 |    |    |    |    |    |    |    |
|--------------------------------|--------------------------------|
|------------9---7-----------9---|------------9---7-----------9---|
|7-------------------10--9-------|7-------------------10--9-------|
|--------------------------------|--------------------------------|

 |    |    |    |    |    |    |    |
|------------------------5-------|--------------------------------|
|------------5-------------------|5-----------------------5-------|
|3---------------------------3---|------------5-------5-------5---|
|--------------------------------|--------------------------------|

 |    |    |    |    |    |    |    |
|------------------------5---7---|--------------------------------|
|------------5-------5-----------|5---------------------------4---|
|3-------------------------------|------------5-------5---5-------|
|--------------------------------|--------------------------------|

 |    |    |    |    |    |    |    |
|--------------------------------|--------------------------------|
|5-------5---------------5-------|--------------------------------|
|------------5-------5-------5---|3-------3---------------3-------|
|--------------------------------|----------------3---3-----------|

 |    |    |    |    |    |    |    |
|--------------------------------|--------------------------------|
|5-------5-------5---5-----------|--------2---5-----------2---4---|
|------------7-----------7---5---|3---3-----------3---3-----------|
|--------------------------------|--------------------------------|

 |    |    |    |    |    |    |    |
|--------------------------------|--------------------------------|
|5---5-----------5---5-----------|--------2---5-----------2---4---|
|--------7---5-----------7---5---|3---3-----------3---3-----------|
|--------------------------------|--------------------------------|

 |    |    |    |
|--------------------------------|
|5---5-----------5---5-----------|
|--------7---5-----------7---5---|
|--------------------------------|   and so on until end

Almost there ...

Sign in to get your own page with links to favourite songs and more. You are just one click away...

Login with Facebook Login with Google