Log in

One click and you are in

Login with Facebook Login with Google

Why sign up and log in

Guitar Tabs Explorer
Quest For Glory tabs for Eranas peace

Guitar tabs

Erana'S Peace
~Quest for Glory I: So You Want To Be a Hero~
Composed by: Mark Seibert
Arranged by: kenor

Rhytm: 4/4 metrum
Capo 1
                                                                             |--3--|
     A chord diagramE MajorE  A chord diagramE MajorE  A chord diagramE MajorE  A chord diagramE MajorE  A chord diagramE MajorE  A chord diagramE MajorE  A chord diagramE MajorE  A chord diagramE MajorE     A chord diagramE MajorE  A chord diagramE MajorE  A chord diagramE MajorE  A chord diagramE MajorE  A chord diagramE MajorE  A chord diagramE MajorE  A chord diagramE MajorE  A chord diagramE MajorE     A chord diagramE MajorE  A chord diagramE MajorE  A chord diagramE MajorE  A chord diagramE MajorE  A chord diagramE MajorE  A chord diagramE MajorE  A chord diagramE MajorE  A chord diagramE MajorE  A chord diagramE MajorE
A chord diagramE MajorE||--------------------------|--------------------------|-----------------------------|
A chord diagramBB||-----------3-----------3--|-----------3--------2--3--|--2--------2-----------0-----|
A chord diagramG+G||--------4-----4-----4-----|--------4--------4--------|--------2-----2-----2-----2--|
A chord diagramD MajorD||-----4-----------4--------|-----4--------4-----------|-----2-----------2-----------|
A chord diagramA augmentedA||--2-----------------------|--2-----------------------|--0--------------------------|
A chord diagramE MajorE||--------------------------|--------------------------|-----------------------------|


  A chord diagramE MajorE  A chord diagramE MajorE  A chord diagramE MajorE  A chord diagramE MajorE  A chord diagramE MajorE  A chord diagramE MajorE  A chord diagramE MajorE  A chord diagramE MajorE     A chord diagramE MajorE  A chord diagramE MajorE  A chord diagramE MajorE  A chord diagramE MajorE  A chord diagramE MajorE  S S A chord diagramE MajorE  A chord diagramE MajorE     A chord diagramE MajorE  A chord diagramE MajorE  A chord diagramE MajorE  A chord diagramE MajorE  A chord diagramE MajorE  A chord diagramE MajorE  A chord diagramE MajorE  A chord diagramE MajorE
-----------0--------------|--------------0------------|--------------------------|
--0-----------------------|-------------------3----2--|--3-----------------------|
--------------------------|-----------0---------0-----|-----------2--------------|
--------2-----------2-----|--------2--------2---------|--------0-----0--------0--|
-----2-----------2-----2--|-----2---------------------|-----0-----------0--------|
--4-----------4-----------|--3------------------------|--2-----------------2-----|


  A chord diagramE MajorE  S S A chord diagramE MajorE  A chord diagramE MajorE  A chord diagramE MajorE  A chord diagramE MajorE  A chord diagramE MajorE  A chord diagramE MajorE     A chord diagramE MajorE  A chord diagramE MajorE  A chord diagramE MajorE  A chord diagramE MajorE  A chord diagramE MajorE  A chord diagramE MajorE  A chord diagramE MajorE  A chord diagramE MajorE     A chord diagramE MajorE  A chord diagramE MajorE  A chord diagramE MajorE  A chord diagramE MajorE  A chord diagramE MajorE  A chord diagramE MajorE  A chord diagramE MajorE  A chord diagramE MajorE
---------------------------|--------------------------|--------------------------|
--3----1----0--1-----------|--1-----------------------|--0-----------------------|
------------------------2--|-----------0--0-----------|--------------------------|
---------3-----------3-----|--------2-----------2-----|--------2--------------2--|
-----3------------3--------|-----3-----------3-----3--|-----2-----2--1-----4-----|
--1------------1-----------|--0-----------0-----------|--2--------------2--------|

                             |--3--|                |--3--|
  A chord diagramE MajorE  A chord diagramE MajorE  A chord diagramE MajorE  A chord diagramE MajorE  A chord diagramE MajorE  A chord diagramE MajorE  A chord diagramE MajorE  A chord diagramE MajorE     S  S  S A chord diagramE MajorE  A chord diagramE MajorE  A chord diagramE MajorE  A chord diagramE MajorE  A chord diagramE MajorE  A chord diagramE MajorE  A chord diagramE MajorE  A chord diagramE MajorE     A chord diagramE MajorE  A chord diagramE MajorE  A chord diagramE MajorE  A chord diagramE MajorE  A chord diagramE MajorE  A chord diagramE MajorE  A chord diagramE MajorE  A chord diagramE MajorE
--------------------------|----------------------------------|-----------0--------------|
--------------0-----2--3--|--2h-3p-2-------2-----------0-----|--0-----------------------|
-----------------4--------|-------------2-----2-----2-----2--|--------------------------|
--0-----0--4--------------|----------2-----------2-----------|--------2-----------2-----|
-----2--------------------|--0-------------------------------|-----2-----------2-----2--|
--------------------------|----------------------------------|--4-----------4-----------|


  A chord diagramE MajorE  A chord diagramE MajorE  A chord diagramE MajorE  A chord diagramE MajorE  A chord diagramE MajorE  S S A chord diagramE MajorE  A chord diagramE MajorE     A chord diagramE MajorE  S S A chord diagramE MajorE  A chord diagramE MajorE  A chord diagramE MajorE  A chord diagramE MajorE  A chord diagramE MajorE  A chord diagramE MajorE     A chord diagramE MajorE  S S A chord diagramE MajorE  A chord diagramE MajorE  A chord diagramE MajorE  A chord diagramE MajorE  A chord diagramE MajorE  A chord diagramE MajorE
--------------0----0----0--|--0------------------------|---------------------------|
---------------------------|-------3----2--3-----------|--3----1----0--1-----------|
-----------0---------0-----|---------------------------|------------------------2--|
--------2--------2---------|---------0-----------0-----|---------3-----------3-----|
-----2---------------------|-----0------------0-----0--|-----3------------3--------|
--3------------------------|--2------------2-----------|--1------------1-----------|


  A chord diagramE MajorE  A chord diagramE MajorE  A chord diagramE MajorE  A chord diagramE MajorE  A chord diagramE MajorE  A chord diagramE MajorE  A chord diagramE MajorE  A chord diagramE MajorE     A chord diagramE MajorE  A chord diagramE MajorE  A chord diagramE MajorE  A chord diagramE MajorE  A chord diagramE MajorE  A chord diagramE MajorE  A chord diagramE MajorE  A chord diagramE MajorE     A chord diagramE MajorE  A chord diagramE MajorE  A chord diagramE MajorE  A chord diagramE MajorE  A chord diagramE MajorE  A chord diagramE MajorE  A chord diagramE MajorE  A chord diagramE MajorE
--------------------------|--------------------------|--------------------------|
--1-----------------------|--0-----------------------|--------------0-----2--3--|
-----------0--0-----2-----|--------------------------|-----------------4--------|
--------2--------2-----2--|--------2--------------2--|--0-----0--4--------------|
-----3--------3-----------|-----2-----2--1-----4-----|--2--2--------------------|
--0-----------------------|--2--------------2--------|--------------------------|


  |--3--|                |--3--|
  S  S  S A chord diagramE MajorE  A chord diagramE MajorE  A chord diagramE MajorE  A chord diagramE MajorE  A chord diagramE MajorE  A chord diagramE MajorE  A chord diagramE MajorE  A chord diagramE MajorE     A chord diagramE MajorE  A chord diagramE MajorE  A chord diagramE MajorE  A chord diagramE MajorE  A chord diagramE MajorE  A chord diagramE MajorE  A chord diagramE MajorE  A chord diagramE MajorE     A chord diagramE MajorE  A chord diagramE MajorE  A chord diagramE MajorE  A chord diagramE MajorE  A chord diagramE MajorE  S S A chord diagramE MajorE  A chord diagramE MajorE
----------------------------------|-----------0--------------|--------------0----0----0--|
--2h-3p-2-------2-----------0-----|--0-----------------------|---------------------------|
-------------2-----2-----2-----2--|--------------------------|-----------0---------0-----|
----------2-----------2-----------|--------2-----------2-----|--------2--------2---------|
--0-------------------------------|-----2-----------2-----2--|-----2---------------------|
----------------------------------|--4-----------4-----------|--3------------------------|


  A chord diagramE MajorE  S S A chord diagramE MajorE  A chord diagramE MajorE  A chord diagramE MajorE  A chord diagramE MajorE  A chord diagramE MajorE  A chord diagramE MajorE     A chord diagramE MajorE  S S A chord diagramE MajorE  A chord diagramE MajorE  A chord diagramE MajorE  A chord diagramE MajorE  A chord diagramE MajorE  A chord diagramE MajorE     A chord diagramE MajorE  A chord diagramE MajorE  A chord diagramE MajorE  A chord diagramE MajorE  A chord diagramE MajorE  A chord diagramE MajorE  A chord diagramE MajorE  A chord diagramE MajorE
--0------------------------|---------------------------|--------------------------|
-------3----2--3-----------|--3----1----0--1-----------|--1-----------------------|
---------------------------|------------------------2--|-----------0--0-----2-----|
---------0-----------0-----|---------3-----------3-----|--------2--------2-----2--|
-----0------------0-----0--|-----3------------3--------|-----3--------3-----------|
--2------------2-----------|--1------------1-----------|--0-----------------------|


  A chord diagramE MajorE  A chord diagramE MajorE  A chord diagramE MajorE  A chord diagramE MajorE  A chord diagramE MajorE  A chord diagramE MajorE  A chord diagramE MajorE  A chord diagramE MajorE     A chord diagramE MajorE  A chord diagramE MajorE  A chord diagramE MajorE  A chord diagramE MajorE  A chord diagramE MajorE  S S A chord diagramE MajorE  A chord diagramE MajorE     A chord diagramE MajorE  A chord diagramE MajorE  A chord diagramE MajorE  A chord diagramE MajorE  A chord diagramE MajorE  A chord diagramE MajorE  A chord diagramE MajorE  S S
--------------------------|--------------2----3----5--|--0--------------------0-2-|
--0-----------------------|--------3------------3-----|-----------2---------------|
--------------------------|-----2-----2-----2---------|--------2-----2------------|
--------2--------------2--|--0------------------------|-----2-----------2---------|
-----2-----2--1-----4-----|---------------------------|--0-----------------0------|
--2--------------2--------|---------------------------|---------------------------|


  A chord diagramE MajorE  A chord diagramE MajorE  A chord diagramE MajorE  A chord diagramE MajorE  A chord diagramE MajorE  S S A chord diagramE MajorE  A chord diagramE MajorE     A chord diagramE MajorE  A chord diagramE MajorE  A chord diagramE MajorE  A chord diagramE MajorE  A chord diagramE MajorE  A chord diagramE MajorE  A chord diagramE MajorE  A chord diagramE MajorE     A chord diagramE MajorE  A chord diagramE MajorE  A chord diagramE MajorE  A chord diagramE MajorE  A chord diagramE MajorE  S S A chord diagramE MajorE  A chord diagramE MajorE
--3----------------2----0--|--------------------------|--------------2----0-------|
-----------1---------------|--3-----------------------|-----------3------------3--|
--------0-----0------0-----|-----------0--------------|--------4------------4-----|
-----2-----------2---------|--------0-----0-----------|-----4-----------4---------|
--3------------------------|-----2-----------2-----0--|--2------------------------|
---------------------------|--3-----------------3-----|---------------------------|


                              |--3--|
  A chord diagramE MajorE  A chord diagramE MajorE  A chord diagramE MajorE  A chord diagramE MajorE  A chord diagramE MajorE  S S A chord diagramE MajorE  A chord diagramE MajorE     A chord diagramE MajorE  A chord diagramE MajorE  A chord diagramE MajorE  A chord diagramE MajorE  A chord diagramE MajorE  A chord diagramE MajorE  A chord diagramE MajorE  A chord diagramE MajorE  A chord diagramE MajorE     A chord diagramE MajorE  A chord diagramE MajorE  A chord diagramE MajorE  A chord diagramE MajorE  A chord diagramE MajorE  S S A chord diagramE MajorE  A chord diagramE MajorE
--0---------------------0--|-----------------------------|-----------2--2----3----5--|
--------------2----3-------|--3--2--0--------------------|--------3------------3-----|
--------2------------2-----|-----------------0-----------|-----2-----------2---------|
-----2-----2-----2---------|--------------0-----0--------|--0-----------0------------|
--0------------------------|-----------2-----------2--4--|---------------------------|
---------------------------|--3--------------------------|---------------------------|


  A chord diagramE MajorE  A chord diagramE MajorE  A chord diagramE MajorE  A chord diagramE MajorE  A chord diagramE MajorE  A chord diagramE MajorE  A chord diagramE MajorE  S S    A chord diagramE MajorE  A chord diagramE MajorE  A chord diagramE MajorE  A chord diagramE MajorE  A chord diagramE MajorE  S S A chord diagramE MajorE  A chord diagramE MajorE     A chord diagramE MajorE  A chord diagramE MajorE  A chord diagramE MajorE  A chord diagramE MajorE  A chord diagramE MajorE  A chord diagramE MajorE  A chord diagramE MajorE  A chord diagramE MajorE
--0--------------------0-2-|--3----------------2----0--|--------------------------|
-----------2---------------|-----------1---------------|--3-----------------------|
--------2-----2------------|--------0-----0------0-----|-----------0--------------|
-----2-----------2---------|-----2-----------2---------|--------0-----0-----0-----|
--0-----------------0------|--3------------------------|-----2-----------2-----4--|
---------------------------|---------------------------|--3-----------------------|


  A chord diagramE MajorE  A chord diagramE MajorE  A chord diagramE MajorE  A chord diagramE MajorE  A chord diagramE MajorE  S S A chord diagramE MajorE  A chord diagramE MajorE     A chord diagramE MajorE  A chord diagramE MajorE  A chord diagramE MajorE  A chord diagramE MajorE  A chord diagramE MajorE  S S A chord diagramE MajorE  A chord diagramE MajorE     A chord diagramE MajorE  A chord diagramE MajorE  A chord diagramE MajorE  A chord diagramE MajorE  A chord diagramE MajorE  A chord diagramE MajorE  Q
--------------2----0-------|--0---------------------0--|-------------------------|
-----------3------------3--|--------------2----3-------|--3----------------------|
--------4------------4-----|--------2------------2-----|-----------0-------------|
-----4-----------4---------|-----2-----2-----2---------|--------0-----0-----0----|
--2------------------------|--0------------------------|-----2-----------2-------|
---------------------------|---------------------------|--3----------------------|


                                                        |--3--|                |--3--|
  A chord diagramE MajorE  A chord diagramE MajorE  A chord diagramE MajorE  A chord diagramE MajorE  A chord diagramE MajorE  A chord diagramE MajorE  A chord diagramE MajorE  A chord diagramE MajorE     A chord diagramE MajorE  A chord diagramE MajorE  A chord diagramE MajorE  A chord diagramE MajorE  A chord diagramE MajorE  A chord diagramE MajorE  A chord diagramE MajorE  A chord diagramE MajorE     S  S  S A chord diagramE MajorE  A chord diagramE MajorE  A chord diagramE MajorE  A chord diagramE MajorE  A chord diagramE MajorE  A chord diagramE MajorE  A chord diagramE MajorE  A chord diagramE MajorE
-----------0--------0--2--|--------------------------|----------------------------------|
--0-----0-----2-----------|--0--------3--------2--3--|--2h-3p-2-------2-----------0-----|
-----------------3--------|--------4--------4--------|-------------2-----2-----2-----2--|
-----4--------------------|-----4--------4-----------|----------2-----------2-----------|
--------------------------|--2-----------------------|--0-------------------------------|
--2-----------------------|--------------------------|----------------------------------|


  A chord diagramE MajorE  A chord diagramE MajorE  A chord diagramE MajorE  A chord diagramE MajorE  A chord diagramE MajorE  A chord diagramE MajorE  A chord diagramE MajorE  A chord diagramE MajorE     A chord diagramE MajorE  A chord diagramE MajorE  A chord diagramE MajorE  A chord diagramE MajorE  A chord diagramE MajorE  S S A chord diagramE MajorE  A chord diagramE MajorE     A chord diagramE MajorE  S S A chord diagramE MajorE  A chord diagramE MajorE  A chord diagramE MajorE  A chord diagramE MajorE  A chord diagramE MajorE  A chord diagramE MajorE
-----------0--------------|--------------0----0----0--|--0------------------------|
--0-----------------------|---------------------------|-------3----2--3-----------|
--------------------------|-----------0---------0-----|---------------------------|
--------2-----------2-----|--------2--------2---------|---------0-----------0-----|
-----2-----------2-----2--|-----2---------------------|-----0------------0-----0--|
--4-----------4-----------|--3------------------------|--2------------2-----------|


  A chord diagramE MajorE  S S A chord diagramE MajorE  A chord diagramE MajorE  A chord diagramE MajorE  A chord diagramE MajorE  A chord diagramE MajorE  A chord diagramE MajorE     A chord diagramE MajorE  A chord diagramE MajorE  A chord diagramE MajorE  A chord diagramE MajorE  A chord diagramE MajorE  A chord diagramE MajorE  A chord diagramE MajorE  A chord diagramE MajorE     A chord diagramE MajorE  A chord diagramE MajorE  A chord diagramE MajorE  A chord diagramE MajorE  A chord diagramE MajorE  A chord diagramE MajorE  A chord diagramE MajorE  A chord diagramE MajorE
---------------------------|--------------------------|--------------------------|
--3----1----0--1-----------|--1-----------------------|--0-----------------------|
------------------------2--|-----------0--0-----2-----|--------------------------|
---------3-----------3-----|--------2--------2-----2--|--------2--------------2--|
-----3------------3--------|-----3--------3-----------|-----2-----2--1-----4-----|
--1------------1-----------|--0-----------------------|--2--------------2--------|


                             |--3--|                |--3--|
  A chord diagramE MajorE  A chord diagramE MajorE  A chord diagramE MajorE  A chord diagramE MajorE  A chord diagramE MajorE  A chord diagramE MajorE  A chord diagramE MajorE  A chord diagramE MajorE     S  S  S A chord diagramE MajorE  A chord diagramE MajorE  A chord diagramE MajorE  A chord diagramE MajorE  A chord diagramE MajorE  A chord diagramE MajorE  A chord diagramE MajorE  A chord diagramE MajorE     A chord diagramE MajorE  A chord diagramE MajorE  A chord diagramE MajorE  A chord diagramE MajorE  A chord diagramE MajorE  A chord diagramE MajorE  A chord diagramE MajorE  A chord diagramE MajorE
--------------------------|----------------------------------|-----------0--------------|
--------------0-----2--3--|--2h-3p-2-------2-----------0-----|--0-----------------------|
-----------------4--------|-------------2-----2-----2-----2--|--------------------------|
--0-----0--4--------------|----------2-----------2-----------|--------2-----------2-----|
--2--2--------------------|--0-------------------------------|-----2-----------2-----2--|
--------------------------|----------------------------------|--4-----------4-----------|


  A chord diagramE MajorE  A chord diagramE MajorE  A chord diagramE MajorE  A chord diagramE MajorE  A chord diagramE MajorE  S S A chord diagramE MajorE  A chord diagramE MajorE     A chord diagramE MajorE  S S A chord diagramE MajorE  A chord diagramE MajorE  A chord diagramE MajorE  A chord diagramE MajorE  A chord diagramE MajorE  A chord diagramE MajorE     A chord diagramE MajorE  S S A chord diagramE MajorE  A chord diagramE MajorE  A chord diagramE MajorE  A chord diagramE MajorE  A chord diagramE MajorE  A chord diagramE MajorE
--------------0----0----0--|--0------------------------|---------------------------|
---------------------------|-------3----2--3-----------|--3----1----0--1-----------|
-----------0---------0-----|---------------------------|------------------------2--|
--------2--------2---------|---------0-----------0-----|---------3-----------3-----|
-----2---------------------|-----0------------0-----0--|-----3------------3--------|
--3------------------------|--2------------2-----------|--1------------1-----------|


  A chord diagramE MajorE  A chord diagramE MajorE  A chord diagramE MajorE  A chord diagramE MajorE  A chord diagramE MajorE  A chord diagramE MajorE  A chord diagramE MajorE  A chord diagramE MajorE     A chord diagramE MajorE  A chord diagramE MajorE  A chord diagramE MajorE  A chord diagramE MajorE  A chord diagramE MajorE  A chord diagramE MajorE  A chord diagramE MajorE  A chord diagramE MajorE     A chord diagramE MajorE  A chord diagramE MajorE  A chord diagramE MajorE  A chord diagramE MajorE  A chord diagramE MajorE  S S A chord diagramE MajorE  A chord diagramE MajorE
--------------------------|--------------------------|--------------2----3----5--|
--1-----------------------|--0-----------------------|--------3------------3-----|
-----------0--0-----2-----|--------------------------|-----2-----2-----2---------|
--------2--------2-----2--|--------2--------------2--|--0------------------------|
-----3--------3-----------|-----2-----2--1-----4-----|---------------------------|
--0-----------------------|--2--------------2--------|---------------------------|


  A chord diagramE MajorE  A chord diagramE MajorE  A chord diagramE MajorE  A chord diagramE MajorE  A chord diagramE MajorE  A chord diagramE MajorE  A chord diagramE MajorE  S S    A chord diagramE MajorE  A chord diagramE MajorE  A chord diagramE MajorE  A chord diagramE MajorE  A chord diagramE MajorE  S S A chord diagramE MajorE  A chord diagramE MajorE     A chord diagramE MajorE  A chord diagramE MajorE  A chord diagramE MajorE  A chord diagramE MajorE  A chord diagramE MajorE  A chord diagramE MajorE  A chord diagramE MajorE  A chord diagramE MajorE
--0--------------------0-2-|--3----------------2----0--|--------------------------|
-----------2---------------|-----------1---------------|--3-----------------------|
--------2-----2------------|--------0-----0------0-----|-----------0--------------|
-----2-----------2---------|-----2-----------2---------|--------0-----0-----------|
--0-----------------0------|--3------------------------|-----2-----------2-----0--|
---------------------------|---------------------------|--3-----------------3-----|


                                                          |--3--|
  A chord diagramE MajorE  A chord diagramE MajorE  A chord diagramE MajorE  A chord diagramE MajorE  A chord diagramE MajorE  S S A chord diagramE MajorE  A chord diagramE MajorE     A chord diagramE MajorE  A chord diagramE MajorE  A chord diagramE MajorE  A chord diagramE MajorE  A chord diagramE MajorE  S S A chord diagramE MajorE  A chord diagramE MajorE     A chord diagramE MajorE  A chord diagramE MajorE  A chord diagramE MajorE  A chord diagramE MajorE  A chord diagramE MajorE  A chord diagramE MajorE  A chord diagramE MajorE  A chord diagramE MajorE  A chord diagramE MajorE
--------------2----0-------|--0---------------------0--|-----------------------------|
-----------3------------3--|--------------2----3-------|--3--2--0--------------------|
--------4------------4-----|--------2------------2-----|-----------------0-----------|
-----4-----------4---------|-----2-----2-----2---------|--------------0-----0--------|
--2------------------------|--0------------------------|-----------2-----------2--4--|
---------------------------|---------------------------|--3--------------------------|


  A chord diagramE MajorE  A chord diagramE MajorE  A chord diagramE MajorE  A chord diagramE MajorE  A chord diagramE MajorE  S S A chord diagramE MajorE  A chord diagramE MajorE     A chord diagramE MajorE  A chord diagramE MajorE  A chord diagramE MajorE  A chord diagramE MajorE  A chord diagramE MajorE  A chord diagramE MajorE  A chord diagramE MajorE  S S    A chord diagramE MajorE  A chord diagramE MajorE  A chord diagramE MajorE  A chord diagramE MajorE  A chord diagramE MajorE  S S A chord diagramE MajorE  A chord diagramE MajorE
-----------2--2----3----5--|--0--------------------0-2-|--3----------------2----0--|
--------3------------3-----|-----------2---------------|-----------1---------------|
-----2-----------2---------|--------2-----2------------|--------0-----0------0-----|
--0-----------0------------|-----2-----------2---------|-----2-----------2---------|
---------------------------|--0-----------------0------|--3------------------------|
---------------------------|---------------------------|---------------------------|


  A chord diagramE MajorE  A chord diagramE MajorE  A chord diagramE MajorE  A chord diagramE MajorE  A chord diagramE MajorE  A chord diagramE MajorE  A chord diagramE MajorE  A chord diagramE MajorE     A chord diagramE MajorE  A chord diagramE MajorE  A chord diagramE MajorE  A chord diagramE MajorE  A chord diagramE MajorE  S S A chord diagramE MajorE  A chord diagramE MajorE     A chord diagramE MajorE  A chord diagramE MajorE  A chord diagramE MajorE  A chord diagramE MajorE  A chord diagramE MajorE  S S A chord diagramE MajorE  A chord diagramE MajorE
--------------------------|--------------2----0-------|--0---------------------0--|
--3-----------------------|-----------3------------3--|--------------2----3-------|
-----------0--------------|--------4------------4-----|--------2------------2-----|
--------0-----0-----0-----|-----4-----------4---------|-----2-----2-----2---------|
-----2-----------2-----4--|--2------------------------|--0------------------------|
--3-----------------------|---------------------------|---------------------------|


  A chord diagramE MajorE  A chord diagramE MajorE  A chord diagramE MajorE  A chord diagramE MajorE  A chord diagramE MajorE  A chord diagramE MajorE  Q       A chord diagramE MajorE  A chord diagramE MajorE  A chord diagramE MajorE  A chord diagramE MajorE  A chord diagramE MajorE  A chord diagramE MajorE  A chord diagramE MajorE  A chord diagramE MajorE     A chord diagramE MajorE  A chord diagramE MajorE  A chord diagramE MajorE  A chord diagramE MajorE  A chord diagramE MajorE  A chord diagramE MajorE  A chord diagramE MajorE  A chord diagramE MajorE
-------------------------|-----------0--------0--2--|--7-----------------------|
--3----------------------|--0-----0-----2-----------|-----------------------7--|
-----------0-------------|-----------------3--------|-----------7--------7-----|
--------0-----0-----0----|-----4--------------------|--------9--------9--------|
-----2-----------2-------|--------------------------|-----9--------9-----------|
--3----------------------|--2-----------------------|--7-----------------------|


                                                        ^
  A chord diagramE MajorE  A chord diagramE MajorE  A chord diagramE MajorE  A chord diagramE MajorE  A chord diagramE MajorE  A chord diagramE MajorE  A chord diagramE MajorE  A chord diagramE MajorE     A chord diagramE MajorE  A chord diagramE MajorE  A chord diagramE MajorE  A chord diagramE MajorE  A chord diagramE MajorE  A chord diagramE MajorE  A chord diagramE MajorE  A chord diagramE MajorE     W
--------------------------|--------------------------|--7----------------||
-----------------------7--|-----------------------7--|-------------------||
-----------7--------7-----|-----------7--------7-----|--7----------------||
--------9--------9--------|--------9--------9--------|-------------------||
-----9--------9-----------|-----9--------9-----------|-------------------||
--7-----------------------|--7-----------------------|--7----------------||


🏷Legend:
-------

W - whole
Q - quarter
A chord diagramE MajorE - 8th
S - 16th
|-n-|  - n-tuplets
SH - semi harmonic
PH - pitch harmonic
h - hammer on
p - pull off

Almost there ...

Sign in to get your own page with links to favourite songs and more. You are just one click away...

Login with Facebook Login with Google