Log in

One click and you are in

Login with Facebook Login with Google

Why sign up and log in

Guitar Tabs Explorer
Queers tabs for Debra jean

Tabs with lyrics

GUITAR TABLATURE:

   This is the tablature for DEBRA JEAN from the album LOVE SONGS FOR
   THE RETARDED written by THE QUEERS.
   This was song was figured out by MAX OBEIDIN (and a little bit by
   RYAN JERNIGAN)
   E-Mail: [email protected]
   This song is played in standard tuning (E,A,D,G,B,E).
   Lyrics and Music by THE QUEERS.
  (Taken from the lyrics in the album.)

   Notes:
        I recommend playing the song with downstrokes.
        I have also written two ways to play the solo.
        They both have the same notes, but the second one is
        probably easier. (I prefer playing it the first way, even though
        I figured outhow to play it both ways.)
        By the way, this is my first tab.


   Here Are The Chords That You'll Need:

          Chord diagramE MajorE = ---------        Chord diagramG+G = ---------        Chord diagramC majorC = ---------
              ---------            ---------            ---------
              ---------            ---------            ----5----
              ----2----            ----5----            ----5----
              ----2----            ----5----            ----3----
              ----0----            ----3----            ---------

        Chord diagramD MajorD = ---------         Chord diagramD MajorD = ---------
            ---------             ----3----
            ----7----     or      ----2----
            ----7----             ----0----
            ----5----             ---------
            ---------             ---------

   Play the Chord diagramD MajorD chord whichever way is the easiest.
   (I use the first one.)

   Each Chord Is Played Several Times
   (It's Best To Practice Along With The Album).

   First Verse:

        Chord diagramG+G                         Chord diagramE MajorE
        One ..

        Chord diagramG+G
        So I ..

        Chord diagramE MajorE                                Chord diagramC majorC
        So I ..

        Chord diagramC majorC
        It's ..

        Chord diagramD MajorD
        If you ...

        Chord diagramG+G
        You ..

        Chord diagramE MajorE
        Keep ..

        Chord diagramG+G
        You ..

        Chord diagramE MajorE
        You ..

        Chord diagramE MajorE     Chord diagramC majorC
        Give ..

        Chord diagramD MajorD
        When we ..

        Chord diagramC majorC
        What ..

        Chord diagramG+G
        They're..

        Chord diagramC majorC                          Chord diagramD MajorD
        Open up ..
   Chorus: (2x)

        Chord diagramG+G
        (Oh) Debra..

        Chord diagramE MajorE
        And ..

        Chord diagramC majorC
        To ..(Ooh me)

        Chord diagramD MajorD
        I was ..


   Solo: (See the bottom of this tab sheet.)


   Second Verse:


        Chord diagramG+G                        Chord diagramE MajorE
        One ..

        Chord diagramG+G
        Someone ...

        Chord diagramE MajorE
        And ..

        Chord diagramE MajorE      Chord diagramC majorC
        Give ..

        Chord diagramD MajorD
        When ..

        Chord diagramC majorC
        What I'm ..

        Chord diagramG+G
        They're ...

        Chord diagramC majorC                         Chord diagramD MajorD
        Open ..


   Chorus: (Again) (ad nauseum)

        (The chorus repeats as the song fades out.)


   The Solo: (The way I usually play it.)


     ---------------------------------------------------------------------------
     ---------------------------------------------------------------------------
     ---------------------------------------------- ------5-4---4-5-4---7-5-4---
     -5----7-9-10-9-7-5------7-9-10-9-7-5------7-9-10-9-7-----7-------7-------5-
     -------------------7-----------------7-------------------------------------
     ---------------------------------------------------------------------------


     ---------------------------------------------------------------------------
     ---------------------------------------------------------------------------
     --------------------------------------------------5-4---4-5-4---7-5-4------
     ---7-9-10-9-7-5------7-9-10-9-7-5------7-9-10-9-7-----7-------7-------5----
     ----------------7-----------------7----------------------------------------
     ---------------------------------------------------------------------------


   The Solo: (The easy way to play it.)


     ---------------------------------------------------------------------------
     --------------------------------------------------1-0---0-1-0---3-1-0------
     -0----2-4-5-4-2-0------2-4-5-4-2-0------2-4-5-4-2-----2-------2-------0----
     ------------------2----------------2---------------------------------------
     ---------------------------------------------------------------------------
     ---------------------------------------------------------------------------


     ----------------------------------------------------------------------
     ---------------------------------------------1-0---0-1-0---3-1-0------
     -2-4-5-4-2-0------2-4-5-4-2-0------2-4-5-4-2-----2-------2-------0----
     -------------2----------------2---------------------------------------
     ----------------------------------------------------------------------
     ----------------------------------------------------------------------


   The Backing Riff For The Solo:

        Chord diagramG+G             Chord diagramE MajorE              Chord diagramC majorC               Chord diagramD MajorD


   There. That was my first tab. If it doesn't sound right,
   then your guitar probably isn't tuned.

   HAVE Chord diagramA augmentedA NICE DAY!!!



From [email protected] Sun Apr 28 21:41:31 1996
	id <[email protected]>; Sun, 28 Apr 96 16:39:13 -0500 (CDT)
X-email-warning: As a cautionary note, there have been recent instances of
	people forging mail addresses. If you have any reason to believe
	this message is not authentic, please contact the listed sender or
	System Computing Services at (702) 895-4585.
Status: RO

GUITAR TABLATURE:

   This is the tablature for DEBRA JEAN from the album LOVE SONGS FOR
   THE RETARDED written by THE QUEERS.
   This was song was figured out by MAX OBEIDIN (and a little bit by
   RYAN JERNIGAN)
   E-Mail: [email protected]
   This song is played in standard tuning (E,A,D,G,B,E).
   Lyrics and Music by THE QUEERS.
  (Taken from the lyrics in the album.)

   Notes:
        I recommend playing the song with downstrokes.
        I have also written two ways to play the solo.
        They both have the same notes, but the second one is
        probably easier. (I prefer playing it the first way, even though
        I figured outhow to play it both ways.)
        By the way, this is my first tab.


   Here Are The Chords That You'll Need:

          Chord diagramE MajorE = ---------        Chord diagramG+G = ---------        Chord diagramC majorC = ---------
              ---------            ---------            ---------
              ---------            ---------            ----5----
              ----2----            ----5----            ----5----
              ----2----            ----5----            ----3----
              ----0----            ----3----            ---------

        Chord diagramD MajorD = ---------         Chord diagramD MajorD = ---------
            ---------             ----3----
            ----7----     or      ----2----
            ----7----             ----0----
            ----5----             ---------
            ---------             ---------

   Play the Chord diagramD MajorD chord whichever way is the easiest.
   (I use the first one.)

   Each Chord Is Played Several Times
   (It's Best To Practice Along With The Album).

   First Verse:

        Chord diagramG+G                         Chord diagramE MajorE
        One ..

        Chord diagramG+G
        So I ..

        Chord diagramE MajorE                                Chord diagramC majorC
        So I ..

        Chord diagramC majorC
        It's ..

        Chord diagramD MajorD
        If you ..

        Chord diagramG+G
        You ..

        Chord diagramE MajorE
        Keep ..

        Chord diagramG+G
        You ...

        Chord diagramE MajorE
        You ..

        Chord diagramE MajorE     Chord diagramC majorC
        Give ..

        Chord diagramD MajorD
        When ..

        Chord diagramC majorC
        What I'm ..

        Chord diagramG+G
        They're ..

        Chord diagramC majorC                          Chord diagramD MajorD
        Open ..


   Chorus: (2x)

        Chord diagramG+G
        (Oh) Debra ..

        Chord diagramE MajorE
        And ..

        Chord diagramC majorC
        To ..Ooh me)

        Chord diagramD MajorD
        I ..me


   Solo: (See the bottom of this tab sheet.)


   Second Verse:


        Chord diagramG+G                        Chord diagramE MajorE
        One ..

        Chord diagramG+G
        Someone ..

        Chord diagramE MajorE
        And ..

        Chord diagramE MajorE      Chord diagramC majorC
        Give ..

        Chord diagramD MajorD
        When ..

        Chord diagramC majorC
        What ..

        Chord diagramG+G
        They're ..

        Chord diagramC majorC                         Chord diagramD MajorD
        Open ..


   Chorus: (Again) (ad nauseum)

        (The chorus repeats as the song fades out.)


   The Solo: (The way I usually play it.)


     ---------------------------------------------------------------------------
     ---------------------------------------------------------------------------
     ---------------------------------------------- ------5-4---4-5-4---7-5-4---
     -5----7-9-10-9-7-5------7-9-10-9-7-5------7-9-10-9-7-----7-------7-------5-
     -------------------7-----------------7-------------------------------------
     ---------------------------------------------------------------------------


     ---------------------------------------------------------------------------
     ---------------------------------------------------------------------------
     --------------------------------------------------5-4---4-5-4---7-5-4------
     ---7-9-10-9-7-5------7-9-10-9-7-5------7-9-10-9-7-----7-------7-------5----
     ----------------7-----------------7----------------------------------------
     ---------------------------------------------------------------------------


   The Solo: (The easy way to play it.)


     ---------------------------------------------------------------------------
     --------------------------------------------------1-0---0-1-0---3-1-0------
     -0----2-4-5-4-2-0------2-4-5-4-2-0------2-4-5-4-2-----2-------2-------0----
     ------------------2----------------2---------------------------------------
     ---------------------------------------------------------------------------
     ---------------------------------------------------------------------------


     ----------------------------------------------------------------------
     ---------------------------------------------1-0---0-1-0---3-1-0------
     -2-4-5-4-2-0------2-4-5-4-2-0------2-4-5-4-2-----2-------2-------0----
     -------------2----------------2---------------------------------------
     ----------------------------------------------------------------------
     ----------------------------------------------------------------------


   The Backing Riff For The Solo:

        Chord diagramG+G             Chord diagramE MajorE              Chord diagramC majorC               Chord diagramD MajorD


   There. That was my first tab. If it doesn't sound right,
   then your guitar probably isn't tuned.

   HAVE Chord diagramA augmentedA NICE DAY!!!
ⓘ Guitar tab for 'Debra Jean' by, formed in 2000

Almost there ...

Sign in to get your own page with links to favourite songs and more. You are just one click away...

Login with Facebook Login with Google