Log in

One click and you are in

Login with Facebook Login with Google

Why sign up and log in

Guitar Tabs Explorer
Queensrÿche tabs for Walk in the shadows

Tabs

Intro
e[------------------------------------------------
b[------p----p-----------------------------p----p-
g[2----4422-442-122------2---122-----2----4422-442
d[4----4444-444-220--00000-0-220-----4----4444-444
a[-------------------pm__--pm---------------------
E[------------------------------------------------
                           Verse
-------------------------][-----------------------
-------------------------][-----------------------
-122------2---122-----1-1][-----------h---p-------
-220--00000-0-220-00002-2][-----------24--42------
------pm__--pm----pm__---][-----------------------
-------------------------][2--22222222--22--22222-
                              pm______  pm  pm___

--------------------------------------------------
--------------------------------------------------
---h---p-----------0-------------0-------------h--
---24--42--------h--4-4--------h--4-4----------24-
-----------------02------------02-----------------
222--22--00000000------00000000------2222222222--2
___  pm  pm______      pm______      pm________  p

--------------------------------------------------
--------------------------------------------------
-p-----------h---p-----------0-------------0------
-42----------24--42--------h--4-4--------h--4-4-4-
---------------------------02------------02-----4-
2--2222222222--22--00000000------00000000-------2-
m  pm________  pm  pm______      pm______
ⓘ Guitar tab for 'Walk In The Shadows' by Queensrÿche, a heavy metal band formed in 1981 from Washington, USA. Queensrÿche is known for their reflective metal music.

Almost there ...

Sign in to get your own page with links to favourite songs and more. You are just one click away...

Login with Facebook Login with Google