Log in

One click and you are in

Login with Facebook Login with Google

Why sign up and log in

Guitar Tabs Explorer
Queensrÿche bass tabs for The mission

Bass tabs

-------------------------------------------------------------------------------
             - The Mission by QUEENSRYCHE -


Tabbed By:
  Truck89

Tuning: Standard (EADG)


Intro (0:37)

  1 2 3 4
G|---------|---------|---------|---------|
D|---------|---------|---------|---------|
A|---------|---------|---------|---------|
E|-0~------|---------|---------|---------|

G|---------|---------|---------|---------|
D|---------|---------|---------|---------|
A|---------|---------|-------3///13~---9\|
E|-0~------|---------|---------|---------|

G|---------|---------|---------|---------|
D|---------|---------|---------|---------|
A|--7~-----|---------|---------|---------|
E|-0~------|---------|---------|--------2|

G|---------|---------|---------|---------|---------|
D|---------|---------|---------|---------|---------|
A|--7~-----|---------|---------|-----33~-|---------|
E|-0~------|---------|---------|---------|---------|

Verse 1 (1:19)

  1 + 2 + 3 + 4 +  1 + 2 + 3 + 4 +  1 + 2 + 3 + 4 +  1 + 2 + 3 + 4 +
G|------------------|------------------|------------------|------------------|
D|------------------|------------------|------------------|------------------|
A|------------------|------------------|------------------|---------3~----5--|
E|-0---0---0---0----|-0---0---0---0-0--|-0---0---0---0----|-0---0------------|

  1 + 2 + 3 + 4 +  1 + 2 + 3 + 4 +  1 + 2 + 3 + 4 +  1 + 2 + 3 + 4 +
G|------------------|------------------|------------------|------------------|
D|------------------|------------------|------------------|------------------|
A|------------------|------------------|------------------|---------3-3-5-5--|
E|-0---0---0---0----|-0---0---0---0-0--|---0-0---0---0----|-0---0------------|


Chorus (1:40)

  1 + 2 + 3 + 4 +  1 + 2 + 3 + 4 +  1 + 2 + 3 + 4 +  1 + 2 + 3 + 4 +
G|------------------|------------------|------------------|------------------|
D|-----------5-4----|-------------7\---|-----------5-4----|------------------|
A|-3-3-x-33------7--|-5-5-x-55--x------|-2-2---22------7--|-3-3---33--3-3----|
E|------------------|------------------|------------------|------------------|

  1 + 2 + 3 + 4 +  1 + 2 + 3 + 4 +  1 + 2 + 3 + 4 +  1 + 2 + 3 + 4 +
G|------------------|------------------|------------------|------------------|
D|-----------5-4----|-------------457--|-----------5-4----|------------------|
A|-3-3-x-33------7--|-5-5-x-55---------|-2-2---22------7--|-3-3---5---5------|
E|------------------|------------------|------------------|-------------7\---|


Pre-Verse (2:00)

  1 + 2 + 3 + 4 +  1 + 2 + 3 + 4 +  1 + 2 + 3 + 4 +  1 + 2 + 3 + 4 +
G|------------------|------------------|------------------|------------------|
D|------------------|------------------|------------------|------------------|
A|------------------|------------------|------------------|---------3~----5--|
E|-0---0---0---0----|-0---0---0---0-0--|-0---0---0---0-0--|---0-0------------|


Verse 2 (2:10)

  1 + 2 + 3 + 4 +  1 + 2 + 3 + 4 +  1 + 2 + 3 + 4 +  1 + 2 + 3 + 4 +
G|------------------|------------------|------------------|------------------|
D|------------------|------------------|------------------|------------------|
A|------------------|------------------|------------------|---------3-3---5--|
E|-0---0---0---0----|-0---0---0---0-0--|---0-0---0---0----|-0---0------------|

  1 + 2 + 3 + 4 +  1 + 2 + 3 + 4 +  1 + 2 + 3 + 4 +  1 + 2 + 3 + 4 +
G|------------------|------------------|------------------|------------------|
D|------------------|------------------|------------------|------------------|
A|------------------|------------------|------------------|---------3-3-5-5--|
E|-0---0---0---0----|-0---0---0---0-0--|---0-0---0---0----|-0---0------------|


Chorus 2 (2:30)

  1 + 2 + 3 + 4 +  1 + 2 + 3 + 4 +  1 + 2 + 3 + 4 +  1 + 2 + 3 + 4 +
G|------------------|------------------|------------------|------------------|
D|-----------5-4----|-------------7\---|-----------5-4----|------------------|
A|-3-3-x-33------7--|-5-5-x-55--x------|-2-2---22------7--|-3-3---33--3-3----|
E|------------------|------------------|------------------|------------------|

  1 + 2 + 3 + 4 +  1 + 2 + 3 + 4 +  1 + 2 + 3 + 4 +  1 + 2 + 3 + 4 +
G|------------------|------------------|------------------|------------------|
D|-----------5-4----|-------------457--|-----------5-4----|------------------|
A|-3-3-x-33------7--|-5-5-x-55---------|-2-2---22------7--|-3-3---5~---------|
E|------------------|------------------|------------------|------------------|


Post-Chorus (2:51)

  1 + 2 + 3 + 4 +  1 + 2 + 3 + 4 +  1 + 2 + 3 + 4 +  1 + 2 + 3 + 4 +
G|------------------|------------------|------------------|------------------|
D|------------------|------------------|------------------|------------------|
A|------------------|---------3~--3~---|------------------|---------5~--5~---|
E|-0-0-0-0-0-0-0-0--|-0-0-0-0----------|-0-0-0-0-0-0-0-0--|-0-0-0-0----------|

  1 + 2 + 3 + 4 +  1 + 2 + 3 + 4 +  1 + 2 + 3 + 4 +  1 + 2 + 3 + 4 +
G|------------------|------------------|------------------|------------------|
D|------------------|------------------|------------------|------------------|
A|------------------|---------3~--3~---|------------------|---------5~--5///-|
E|-0-0-0-0-0-0-0-0--|-0-0-0-0----------|-0-0-0-0-0-0-0-0--|-0-0-0-0----------|


Bridge (3:12)

G|---------|---------|---------|---------|
D|---------|---------|---------|---------|
A|---------|---------|-------3///13~--13-|
E|---------|---------|---------|---------|

  1 + 2 + 3 + 4 +  1 + 2 + 3 + 4 +  1 + 2 + 3 + 4 +  1 + 2 + 3 + 4 +
G|------------------|-5~---------------|-6~---------------|-5~---------------|
D|------------------|------------------|------------------|------------------|
A|-7~--x-7---7---7--|-----x-7---7---7--|-----x-7---7---7--|-----x-7---7---7--|
E|------------------|------------------|------------------|------------------|

  1 + 2 + 3 + 4 +  1 + 2 + 3 + 4 +  1 + 2 + 3 + 4 +  1 + 2 + 3 + 4 +
G|------------------|-5~---------------|-6~---------------|------------------|
D|------------------|------------------|------------------|------------------|
A|-7~--x-7---7-x-7--|-----x-7---7-x-7--|-----x-7---7-x-7--|-3~---------------|
E|------------------|------------------|------------------|-------3~----2~---|

  1 + 2 + 3 + 4 +  1 + 2 + 3 + 4 +  1 + 2 + 3 + 4 +  1 + 2 + 3 + 4 +
G|------------------|------------------|------------------|------------------|
D|-----2------------|------------------|------------------|------------------|
A|-------------5----|-3-3-3-3-3-3-3-3--|-4-4-4-4-4-4-4-4--|-3-3-3-33x-5-5~---|
E|-0-0---0-0-0---0--|------------------|------------------|------------------|

  1 + 2 + 3 + 4 +  1 + 2 + 3 + 4 +  1 + 2 + 3 + 4 +  1 + 2 + 3 + 4 +
G|------------------|------------------|------------------|------------------|
D|-----2------------|------------------|-----------6-7----|-------5~----4~---|
A|-------------5----|-3-3-3-333-3-3-33-|-4-4-4-444-----4--|-3~---------------|
E|-0-0---0-0-0---0--|------------------|------------------|-----3------------|


Verse 3 (4:03)

  1 + 2 + 3 + 4 +  1 + 2 + 3 + 4 +  1 + 2 + 3 + 4 +  1 + 2 + 3 + 4 +
G|------------------|------------------|------------------|------------------|
D|------------------|------------------|------------------|------------------|
A|------------------|------------------|------------------|---------3-3---5--|
E|-0---0---0---0----|-0---0---0---0-0--|---0-0---0---0----|-0---0------------|

  1 + 2 + 3 + 4 +  1 + 2 + 3 + 4 +  1 + 2 + 3 + 4 +  1 + 2 + 3 + 4 +
G|------------------|------------------|------------------|------------------|
D|------------------|------------------|------------------|------------------|
A|------------------|------------------|------------------|---------3~--5~---|
E|-0---0---0---0----|-0---0---0---0-0--|---0-0---0---0----|-0---0------------|


Chorus 2 (4:23)

  1 + 2 + 3 + 4 +  1 + 2 + 3 + 4 +  1 + 2 + 3 + 4 +  1 + 2 + 3 + 4 +
G|------------------|------------------|------------------|------------------|
D|-----------5-4----|-------------7\---|-----------5-4----|------------------|
A|-3-3-x-33------7--|-5-5-x-55--x------|-2-2---22------7--|-3-3---33--3-3----|
E|------------------|------------------|------------------|------------------|

  1 + 2 + 3 + 4 +  1 + 2 + 3 + 4 +  1 + 2 + 3 + 4 +  1 + 2 + 3 + 4 +
G|--------5---------|------------------|------------------|------------------|
D|-----------5-4----|-------------457--|-----------5-4----|------------------|
A|-3-3-x-3-------7--|-5-5-x-55---------|-22--x-22------7--|-33----5~---------|
E|------------------|------------------|------------------|------------------|


Post-Chorus (4:44)

  1 + 2 + 3 + 4 +  1 + 2 + 3 + 4 +  1 + 2 + 3 + 4 +  1 + 2 + 3 + 4 +
G|------------------|------------------|------------------|------------------|
D|------------------|------------------|------------------|------------------|
A|------------------|---------3~--3~---|------------------|---------5~--5~---| (x4)
E|-0-0-0-0-0-0-0-0--|-0-0-0-0----------|-0-0-0-0-0-0-0-0--|-0-0-0-0----------|


Outro (5:25)

  1 + 2 + 3 + 4 +  1 + 2 + 3 + 4 +  1 + 2 + 3 + 4 +  1 + 2 + 3 + 4  +
G|------------------|------------------|------------------|-------------91112---|
D|------------------|------------------|------------------|-----------10-----9\7|
A|------------------|-3-3-3-3-3-3-3-3--|-5-5-5-5-5-5-5-5--|-7-7-7/10------------|
E|-0-0-0-0-0-0-0-0--|------------------|------------------|---------------------|

  1 + 2 + 3 + 4 +  1 + 2 + 3 + 4 +  1 + 2 + 3 + 4 +  1 + 2 + 3 + 4 +
G|------------------|------------------|------------------|------------------|
D|------------------|------------------|------------------|------------------|
A|------------------|-3-3-3-333-3-3-33-|-5-5-5-555-5-5-55-|-777---7777--777\-|
E|-0-0-0-000-0-0-00-|------------------|------------------|------------------|


And thats it! Probably not 100%, but fairly close I reckon.
Comments and whatnot appreciated, thanks for reading!



| / slide up
| \ slide down
| h hammer-on
| p pull-off
| ~ vibrato
| + harmonic
| x Mute note
ⓘ Bass guitar tab for 'The Mission' by Queensrÿche, a heavy metal band formed in 1981 from Washington, USA. Queensrÿche is known for their reflective metal music.

Almost there ...

Sign in to get your own page with links to favourite songs and more. You are just one click away...

Login with Facebook Login with Google