Log in

One click and you are in

Login with Facebook Login with Google

Why sign up and log in

Guitar Tabs Explorer
Queensrÿche tabs for The lady wore black

Tabs

"The Lady Wore Black" - Queensryche (EP)
Transcribed March 95 by Curtis Pastor
clpastor@eesun2.tamu.edu
--------------------------------------------------------------------

  The Lady Wore Black - Queensryche
  Intro

e:------------0-----------|----------0-----------|------------0-----------|
B:---------------0--------|----------0-----------|---------------0--------|
G:---------0--------0-----|-------5--------------|---------0--------0-----|
D:------2--------------2--|----5-----------------|------2--------------2--|
A:---2--------------------|-3--------------------|---2--------------------|
E:0-----------------------|----------------------|0-----------------------|


e:--------------------------||-3---------------|-----------------|
B:--------0--------0-----0--||-3---------------|-----------------|
G:-----4--------4-----------||-0---------------|-----------------|
D:-/5--------4--------0-----||-2---------------|-----------------|
A:--------------------------||-3---------------|-----------------|
E:--------------------------||-----------------|-----------3--2--|




e:------------0-----------|----------0-------------|------------0-----------|
B:---------------0--------|----------0-------------|---------------0--------|
G:---------0--------0-----|-------5----------------|---------0--------0-----|
D:------2--------------2--|----5-------------------|------2--------------2--|
A:---2--------------------|-3----------------------|---2--------------------|
E:0-----------------------|------------------------|0-----------------------|


e:--------------------------|------------0-----------|
B:--------0--------0-----0--|---------------0--------|
G:-----4--------4-----------|---------0--------0-----|
D:-/5--------4--------0-----|------2--------------2--|
A:--------------------------|---2--------------------|
E:--------------------------|0-----------------------|


                                  repeat last 4

e:--------------------3\---------|-------------|
B:--------0--------0--3\---------|---o--////---|
G:-----4--------4----------------|-----////----|
D:-/5--------4-------------------|----////-----|
A:-------------------------------|---////--o---|
E:-------------------------------|-------------|



  Movement into chorus                        Chorus

e:-----------------------|-------------------|------------------------|
B:-----------------------|-------------------|----------------5-----5-|
G:-3---------------------|-------------------|----------------4-----4-|
D:-5--------5------------|-5---5---5---5-5-5-|-----5--5-[5]---2-----2-|
A:-3-----3--3-----3---3--|-3---3---3---3-3-3-|-3-x-3--2--0------------|
E:-----------------------|-------------------|------------------------|




e:--------------------------------|-------------------------|
B:--------------------------------|----------------5-----[5]|
G:-2-------4--4--------4--4--0----|----------------4------4-|
D:-2-------4--5--------5--5--0----|-----5--5-[5]---2------2-|
A:-0-------------x--x-------------|-3-x-3--2--0-------------|
E:--------------------------------|-------------------------|




e:----------------------------|--------|
B:----------------------------|--o--//-|
G:-2-------/4-------2-[2]-----|----//--|
D:-2-----------5-------0------|---//---|
A:-0--------------------------|--//--o-|
E:----------------------------|--------|



  solo
e:---------------------|
B:---------------------|
G:-5-------------------|
D:-5-----/7--5--4--4-5-|
A:-3-------------------|
E:---------------------|




e:----------------------------------------------------------------------------|
B:----------------------------------------------------------------------------|
G:---------------------4---4------4--4------------/9---7-9b11b9-7--9--<7>-----|
D:---4--5-4------------2---4--x-x-5--4--4-5-4------------------------------9--|
A:-----------5----2---------------------------5-------------------------------|
E:----------------0-----------------------------------------------------------|





e:--------------12---------------------------------------14-15--14--15b17~~~--|
B:-------------x----15b17~--12-15b16b15~---15-17-19--15-----------------------|
G:----------------------------------------------------------------------------|
D:8--7--5---------------------------------------------------------------------|
A:----------------------------------------------------------------------------|
E:----------------------------------------------------------------------------|




e:----15b17---14-15-14--15--14--17--15--14--------------|
B:------------------------------------------15--15b17---|
G:------------------------------------------------------|
D:------------------------------------------------------|
A:------------------------------------------------------|
E:------------------------------------------------------|




e:----------------------------------------------------------------------------|
B:--12--15-------------------------------------------------------15-----------|
G:----------12--11---------------------------------------------------12--15--1|
D:------------------12------/14---12-14--14b16-b-14-12--14~--12---------------|
A:----------------------14----------------------------------------------------|
E:----------------------------------------------------------------------------|




e:-------------<<12>>-------12\--|
B:--------------------------12\--|
G:1~~~~------9-------------------|
D:-------------------------------|
A:-------------------------------|
E:-------------------------------|


----------
ⓘ Guitar tab for 'The Lady Wore Black' by Queensrÿche, a heavy metal band formed in 1981 from Washington, USA. Queensrÿche is known for their reflective metal music.

Almost there ...

Sign in to get your own page with links to favourite songs and more. You are just one click away...

Login with Facebook Login with Google