Log in

One click and you are in

Login with Facebook Login with Google

Why sign up and log in

Guitar Tabs Explorer
Queensrÿche tabs for The killing words

Tabs with lyrics

The Killing Words (Over) - Queensryche
                      Transcribed 4/3/95 by Curtis Pastor
                          clpastor@eesun2.tamu.edu
                               Standard tuning
     Intro  P.M.
||----------------------------------------------|------------------------------
||----------------------------------------------|------------------------------
||*---------------------4-----------------------|------------------------------
||*------4--6--7-----4-----x--4--7-----6-----6--|------------------------------
||----4-----------------------------------7-----|------------------------------
||----------------------------------------------|------------------------------


------------------------------------------|------------------------------------
------------------------------------------|------------------------------------
------------------4-----------------------|------------------------------------
---4--6--7-----4-----x--4--7-----6-----6--|------------------------------------
0-----------------------------------7-----|------------------------------------
------------------------------------------|------------------------------------


P.M.
-------------------------------------------|-----------------------|-----------
-------------------------------------------|-----------------------|-----------
-------------------4-----------------------|--6--4--------9-----8--|-----------
----4--6--7-----4-----x--4--7-----6-----6--|--6--4--------9-----8--|-----------
-4-----------------------------------7-----|--4--2--------7-----6--|-----------
-------------------------------------------|-----------------------|-----------


                    Acostic
----------------||---------------------|--------------0--------|---------------
----------------||------------0--------|-----0-----------0-----|---------------
4--------------*||---------6-----------|--6-----------------6--|---------------
4--------------*||------6--------------|-----------------------|---------------
2---------------||---4-----------------|-----------------------|---------------
----------------||---------------------|-----------------------|---------------

---------------------|--------------0--------|--------------------|------------
---------0-----------|-----0-----------0-----|-----------0--------|------------
------6--------------|--6-----------------6--|--------6-----------|------------
---6-----------------|-----------------------|-----6--------------|------------
0--------------------|-----------------------|--4-----------------|------------
---------------------|-----------------------|--------------------|------------


------------0--------|-----------------0--------|------------------------------
---0-----------0-----|-----------0--------0-----|------------------------------
6-----------------6--|--------4--------------4--|------------------------------
---------------------|-----4--------------------|------------------------------
---------------------|--2-----------------------|------------------------------
---------------------|--------------------------|------------------------------


---------0--------------------------||-----------------------------------------
---------0--------------------------||-----------------------------------------
------2--2--------------------------||-----------------------------------------
---2--------------0--2--(4)--(2)p0--||-----------------------------------------
0-----------------------------------||-----------------------------------------
------------------------------------||-----------------------------------------


---------------------------------------------------||--------------------------
---------------------------------------------------||--------------------------
---------------------------------------------------||--------------------------
---------------------------------------------------||--------------------------
---------------------------------------------------||--------------------------
---------------------------------------------------||--------------------------


Solo
-9--11--(12)~~~--------|-------------------------------------------------------
-----------------------|-------------------------------------------------------
-----------------------|-------------------------------------------------------
-----------------------|-------------------------------------------------------
-----------------------|-------------------------------------------------------
-----------------------|-------------------------------------------------------


-----9------------9--9---------------------------------------------------------
-/9-----12--(14)--------12--(14)~~~--------9--12--(14)~~~--9-------------------
--------------------------------------------------------------11--(11)--11-----
-------------------------------------------------------------------------------
-------------------------------------------------------------------------------
-------------------------------------------------------------------------------


------------------|------------------------------------------------------------
------------------|------------------------------------------------------------
(11)--8--9--8--9--|------------------------------------------------------------
------------------|------------------------------------------------------------
------------------|------------------------------------------------------------
------------------|------------------------------------------------------------


---------------------9---------------------------------------------------------
--------------------------------12----------------------7--7-------------------
8h9p8/11~~~-----8/9--------9\8---------8\6--6~~~--------6--6--4--(6)~~~--------
-------------------------------------------------------------------------------
-------------------------------------------------------------------------------
-------------------------------------------------------------------------------


---------------------|---------------------------------------------------------
---------------------|---------------------------------------------------------
---4h6p4-------------|---------------------------------------------------------
----------7p4--6~~~--|---------------------------------------------------------
---------------------|---------------------------------------------------------
---------------------|---------------------------------------------------------


----------9--11--(12)--(11)-----9----------------------------------------------
----------9------------------------12-----------10--------9h10--9~~~-----9-----
11--(13)-----------------------------------------------------------------------
-------------------------------------------------------------------------------
-------------------------------------------------------------------------------
-------------------------------------------------------------------------------


-------------------------------------------------------------------------------
h10p9------10p9------10p9------------------------------------------------------
-------11--------11--------11--(13)--(11)p9h11-----------9--11--------8--9-----
-------------------------------------------------------------------------------
-------------------------------------------------------------------------------
-------------------------------------------------------------------------------


             P.M.
---------||---------------------------------------------||---------------------
---------||---------------------------------------------||---------------------
---8--9--||---------------------4-----------------------||---------------------
---------||------4--6--7-----4-----x--4--7-----6-----6--||---------------------
---------||---4-----------------------------------7-----||---------------------
---------||---------------------------------------------||---------------------


Rhythm
----------------------------|-----------------|--------------------------------
----------------------------|-----------------|--------------------------------
-6--------------------------|--------9-----2--|--------------------------------
-6-----6--7-----6-----------|--------9-----2--|--------------------------------
-4-----4--4-----4-----------|--------7-----0--|--------------------------------
----------------------------|-----------------|--------------------------------


---------------------------|--------------------|--------------|---------------
---------------------------|--------------------|--------------|---------------
6--------------------------|-----------2--------|--4-----------|---------------
6--------6--7-----6--------|-----------2-----2--|--4-----------|---------------
4--------4--4-----4--------|-----------0-----2--|--2-----------|---------------
---------------------------|-----------------0--|--------------|---------------


                                                               [1]-------
---------------|--------------------------------------------|---------|--------
---------------|--------------------------------------------|---------|--------
2--------------|--------------------4-----------------------|---6-----|--------
2--------------|-----4--6--7-----4-----x--4--7-----6-----6--|---6-----|--------
0--------------|--4-----------------------------------7-----|---4-----|--------
---------------|--------------------------------------------|---------|--------


[2]--------
-------------||----------------------------------------------------------------
-------------||----------------------------------------------------------------
-6--4--------||----------------------------------------------------------------
-6--4--------||----------------------------------------------------------------
-4--2--------||----------------------------------------------------------------
-------------||----------------------------------------------------------------




==                           TABLATURE EXPLANATION                           ==


----------                            ----------
----5h8--- Hammeron                   ----(8)--- Ghost Note
----------                            ----------
----5p8--- Pulloff                    ----------

----------                            ----------
----5/8--- Slide Up                   -----x---- Dead Note
----------                            ----------
----5\8--- Slide Down                 ----------

----------                            ||------|| Repeat Start & End
----5~~~-- Vibrato                    ||*----*||
----------                            ||*----*||
----------                            ||------||


==           Created with a shareware version of the BUCKET 'O TAB           ==
==                           For more information:                           ==
==                         email: gse@ocsystems.com                          ==
==     US Mail: The Bucket, 3176-B5 Summit Square Dr., Oakton, VA 22124      ==
ⓘ Guitar tab for 'The Killing Words' by Queensrÿche, a heavy metal band formed in 1981 from Washington, USA. Queensrÿche is known for their reflective metal music.

Almost there ...

Sign in to get your own page with links to favourite songs and more. You are just one click away...

Login with Facebook Login with Google