GuitarTabsExplorer icon
GuitarTabsExplorer icon

Log in

Songbook

  • Log in to add and see bookmarks

Last visited songs

    No songs visited yet...

Take Hold Of The Flame by Queensrÿche

Tabs

"Take Hold Of the Flame" - Queensryche (Album: Warning)
Transcribed March 95 by Curtis Pastor
[email protected]
--------------------------------------------------------------------

 Take Hold of the Flame: Queensryche
 Intro: Acoustic

e:--------0---------------|--------0--0---------------|
B:--------0---------------|--------0-----0--0"1--0----|
G:--------2---------------|--------2------------------|
D:-----2--2---------------|------2-2------------------|
A:0-------0---------------|0-------0------------------|
E:------------------------|-------------------------0-|

e:---------------------------0--------|-------0-----0-----|
B:-------------------1---------1------|-------3-------3---|
G:---------2------2----2---------2---0|-------4---------0-|
D:------3------3-------------------3--|----5--5-----------|
A:---3--------------------------------|-------------------|
E:1-----------------------------------|/3-----------------|




e:-------------------------|----------0--0--------|-------------------------|
B:-------0---------0-------|----------0-----0-----|---------------------3---|
G:----2---------4----------|-------2--2--------0--|--------0---------0------|
D:/3--------/5--------3--2-|----2-----2-----------|-----2---------0---------|
A:-------------------------|-0--------0-----------|-/3--------/2----------0-|
E:-------------------------|----------------------|-------------------------|



    continue........
e:------0---------------|
B:------0---------------|
G:---2--2---------------|
D:-2----2---------------|
A:------0---------------|
E:----------------------|




e:-------------------------|--------------------------|-------------------|
B:-------------------------|--------------------------|-------5--5----5---|
G:-------------------------|--------------------------|[2]----4--4----4--2|
D:-------------------------|----------------------2---|[2]----2--2----2--2|
A:-------------------------|---5--5--5--5--3--5---0---|[0]---------------0|
E:-3--3--3--3--3--3--3--3--|3--3--3--3--3--1--3-------|-------------------|



e:----------------------------|--------------------|
B:-----8--------6----[6]------|-------5--5----5----|
G:-----5--------5-----5--0--2-|[2]----4--4----4--2-|
D:-----5--------3-----3--0--2-|[2]----2--2----2--2-|
A:-----------0--------------0-|[0]---------------0-|
E:----------------------------|--------------------|




e:-----------------------------||---------------------------|
B:--6--/--8-8--6-5-------------||-----------8--6-5----------|
G:--3--/--5-5--5-5-/7--5--0--2-||-----------5--5-5-7-5------|
D:--3--/--5---------5--5--0--2-||------------------5-5--3--5|
A:---------------------------0-||-----------------------3--5|
E:-----------------------------||--------------------------3|




e:-------|------------------------|-0----------------------------|
B:-------|------------------------|-3------------------6--5------|
G:-------|------------------------|-4------------------5--5--0--2|
D:[5]----|------------------------|-5------------------------0--2|
A:[5]----|------------------------|-x---------------------------0|
E:[3]----|-3--3--3--3--3--3--3--3-|-3------3--3--3--3------------|



 Bridge - sam e as intr o
e:------------|---------|--------|--------|
B:------------|---------|--------|--------|
G:------------|---------|--------|--------|
D:------------|---------|--------|--------|
A:------------|---------|--------|--------|
E:------------|---------|--------|--------|




e:--------3----1-------------------------------3----1----------------------|
B:--------1----1-------------------------------1----1----------------------|
G:--------2----2-----------------------------------------------------------|
D:3--------------------------------------3---------------------------------|
A:3-----------------------3--3--3--2--3--3---------------------3--3--3--2--|
E:1-----------------1--1--1--1--1--0--1--1---------------1--1--1--1--1--0--|





e:------------0-----0--------------------------0-|--------------------|
B:------------0-----0--------------------------3-|-----6---5----------|
G:------------4-----4--------------------------4-|-----5---5---0---2--|
D:---5--------------------------------------5--5-|-------------0---2--|
A:---5----5-------5-------------5--5--5--5--5----|-----------------0--|
E:---3----3-------3----3--3--3--3--3--3--3--3----|--------------------|




e:[0]-------------|-------------------------|-------|
B:-0--------------|-----------------------0-|-------|
G:-2--------------|-----------------------2-|-------|
D:-2--------------|---------3--------5----2-|-------|
A:-0--------------|------3--------5-------0-|-------|
E:----------------|0--1-------/3------------|-------|




e:-----------------------0------------------------|
B:-----------------------0------------6--5-----0--|
G:-----------------------4------------5--5--0--2--|
D:---------3---------0---5------------------0--2--|
A:------3---------5------5---------------------0--|
E:0--1--------/3---------3---3--3-3-3-------------|




e:-------------------------------------------------------------------1--------|
B:-------------------------------------------------------------------1--------|
G:----------------------4-----------------------------------------------------|
D:---------3---------0--5-------------------------------3---------------------|
A:------3---------5-----5-------------------------------3--------3---------2--|
E:0--1--------/3--------3-------3--3--3--3--3--3--3--3--1--------1---------0--|


 trem
 dip
e:0-\--|
B:0-\--|
G:-----|
D:-----|
A:-----|
E:-----|



 solo

e:--------5----------5-5------------------------------------------------------|
B:--------5----------5-5-------------0-5-8--0-5-8-5-8-5-8-5---5-8-5---5-8-5---|
G:-7"9-----------7"9------7"9"7>5>7-------------------------7-------7-------7-|
D:----------------------------------------------------------------------------|
A:----------------------------------------------------------------------------|
E:----------------------------------------------------------------------------|




e:----------------------------------------------------------------------------|
B:5---------------------------------------------------------------------------|
G:--7-5-4-5-4-5-4-----------------------------.-------------------------------|
D:----------------5-----------/3--2-----3--2--0--2>0--------------------------|
A:---------------------------------------------------3---/5--3--2---/3--2-----|
E:-------------------------------------------------------------------------3--|




e:-------------------------------------------|
B:-------------------------------------------|
G:-------------------------------------------|
D:---------------------------2"4"2-----0-----|
A:0-----0--2--2/[3]\[2]--0----------3--------|
E:-------------------------------------------|




e:-------5----------5-5-------------------------------------------------------|
B:-------5----------5-5--------------------/10-12-13-12>13>12>10----12>13>12>1|
G:--7"9--------7"9-------"9"7>5>7---------------------------->12-----------|
D:----------------------------------------------------------------------------|
A:----------------------------------------------------------------------------|
E:----------------------------------------------------------------------------|




e:------------------------------------------------13--------------------------|
B:0----10>12>10--------------------------------------15"17~~~---~~~--17"15>13>|
G:->12--------->10>12---"-16"14>12>14----/14------------------------------|
D:----------------------------------------------------------------------------|
A:----------------------------------------------------------------------------|
E:----------------------------------------------------------------------------|





e:-------------------------15----------12---------------------------------12-1|
B:15~---13-12-13---12--13------12--13-------12--15------10-12-13-12-13-15-----|
G:----------------------------------------------------------------------------|
D:----------------------------------------------------------------------------|
A:----------------------------------------------------------------------------|
E:----------------------------------------------------------------------------|




e:4--12-14-15--14-15-17-----20-19~~~~~-|
B:-------------------------------------|
G:-------------------------------------|
D:-------------------------------------|
A:-------------------------------------|
E:-------------------------------------|


 outro rythm

e:------5------------------------|------5---------------3--|
B:------5--5------------------5--|------5--5------------3--|
G:------4--4---4--2---2---0---4--|------4--4--4--2------0--|
D:-2----2--2---2--2---2---0---3--|--2---2--2--2--2------0--|
A:-0--------------0---0----------|--0------------0------x--|
E:-------------------------------|-------------------3--3--|


 outro solo

e:------17-19"21"~~~"19"21~~~21-21"19>17----------17-17-----------------------|
B:--/19----------------------------------20"22~~--------20"22~~~--------------|
G:----------------------------------------------------------------------17--19|
D:----------------------------------------------------------------------------|
A:----------------------------------------------------------------------------|
E:----------------------------------------------------------------------------|




e:----------------------------------------------------------------------------|
B:----------------------------------------------------------------------------|
G:"21~~~~~~-----16"17"16--14>16>14-16"17"16--14>16>14--16"17"16--14>16>14--16"|
D:----------------------------------------------------------------------------|
A:----------------------------------------------------------------------------|
E:----------------------------------------------------------------------------|





e:------|
B:------|
G:17"16-|
D:------|
A:------|
E:------|


 ending chords

e:--------------------------|
B:--------------------------|
G:-------------------------2|
D:-5-----------------------2|
A:-5-----------5--5--3--5--0|
E:-3-----3--3--3--3--1--3---|

Other versions of Take Hold Of The Flame

Alternative guitar chords and tabs for Take hold of the flame1 by Queensrÿche

VersionType
Take hold of the flame1Tabs

[ Privacy | About us ]

Welcome to the guitar community

Why join and log in?
- Get songbook with favourite songs
- Get custom made front page
- Submit chords and tabs
- Submit guitar-cover videos
- Get a lot of thumbs up for your work

Songbook

Last visited songs

Site
Home
Search
Community
Submit chords

Video

No video for this page. Check out how you can submit guitar-cover videos here

Search tabs and chords

Browse by artist

A B C D E F G H I J K L M N O P Q R S T U V W X Y Z #


Menu

Search

Video

Bookmark

Login