Guitar Tabs Explorer
Queensryche guitar tabs for Queen of the reich

Queen Of The Reich tab


1 / 5 [1 vote]

Queen Of The Reich tab by Queensryche

Guitar tabs

Print
Intro Rhythm:
|----------------------------|
|----------------------------|
|------2----------2----------|
|------2----------2----------|
|------2----------2----------|
|--0-0-0----------0----------|x2


Riff A chord diagramAA
|------------------------------------------|
|------------------------------------------|
|------------------------------------------|
|---------2----------2----------3-3--2-3-5-|
|---------2----------2----------3-3--2-3-5-|
|-0-0-0-0-0--0-0-0-0-0--0-0-0-0-1-1--------|

(cont.)
|------------------------------------------|
|------------------------------------------|
|------------------------------------------|
|---------2----------2----------3-3--3-5-2-|
|---------2----------2----------3-3--3-5-2-|
|-0-0-0-0-0--0-0-0-0-0--0-0-0-0-1-1--------|x4


Riff B chord diagramBB (Verse Riff)
|---------------------------------------------------|
|---------------------------------------------------|
|---------------------------------------------------|
|-------------------------2---------2---------3-5-2-|
|-------------------------2---------2---------3-5-2-|
|-0-0-0-0-0-0-0-0-0-0-0-0-0-0-0-0-0-0-0-0-0-0-------|x8


Pre-Chorus
|---------------------------------|
|---------------------------------|
|---------------------------------|
|-6-6-6-6-6-6-6-6-6-6-6-6-6-6-6-6-|
|-6-6-6-6-6-6-6-6-6-6-6-6-6-6-6-6-|
|-4-4-4-4-4-4-4-4-4-4-4-4-4-4-4-4-|

(cont.)
|---------------------------------|
|---------------------------------|
|---------------------------------|
|-8-8-8-8-8-8-8-8-8-8-8-8-8-8-8-8-|
|-8-8-8-8-8-8-8-8-8-8-8-8-8-8-8-8-|
|-6-6-6-6-6-6-6-6-6-6-6-6-6-6-6-6-|x1

Riff A chord diagramAA x1
Pre-Chorus x1
Chorus (Riff A chord diagramAA) x2
Pre-Solo (Don't Know, sorry.)
Solo (Don't Know, sorry.)
Riff B chord diagramBB x8
Pre-Chorus x1
Riff A chord diagramAA x1
Pre-Chorus x1
Chorus (Riff A chord diagramAA) x3

Outro
|---------------------------------------|
|---------------------------------------|
|---------------------------------------|
|---------2----------2---3----------2-0-|
|---------2----------2---3----------2-0-|
|-0-0-0-0-0--0-0-0-0-0---1----------0-0-|

Comment this song and these guitar tabs

Do you have corrections, comments on the guitar tabs, thoughts about the song or a message to the author? Write them below.