Log in

One click and you are in

Login with Facebook Login with Google

Why sign up and log in

Guitar Tabs Explorer
Queensrÿche tabs for One more time around

Tabs

One More Time Around - Queensryche (Album: Promised Land)
Transcribed March 95 by Curtis Pastor
clpastor@eesun2.tamu.edu

--------------------------------------------------------------------

  One More Time Around: Queensryche
  (Intro)
e:--------------------|-----------|---------------------|----------|
B:---12---------------|-----------|---------------------|----------|
G:/9----12~-----------|-----------|11--12--9~-----------|----------|
D:--------------------|-----------|---------------------|----------|
A:--------------------|-----------|---------------------|----------|
E:--------------------|-----------|---------------------|----------|


e:----------------|
B:----------------|
G:------9\--------|
D:------9\--------|
A:---7--7\--------|
E:0---------------|


  (Intro) Acoustic Guitar
  /    ///     //     /   ////    /   ///   /   /   /     ////
e:7-------------------3|----------2-------------5-|---------------------|
B:5-------------------5|----------3-------------5-|---------------------|
G:4-------------------4|----------4-------------4-|---------------------|
D:---------------------|--------------------------|---------------------|
A:---------------------|--------------------------|---------------------|
E:---------------------|--------------------------|---------------------|

  1st Verse
  Repeat Acoustic Line
e:---------------------|-|-|----------------------------------------------|
B:---------------------|-|-|----------------------------------------------|
G:---------------------|-|-|r(9)--r(9)-r(7)--------r(9)--r(9)--r(7)-------|
D:---------------------|-|-|-----------------r(7)--------------------r(7)-|
A:---------------------|-|-|----------------------------------------------|
E:---------------------|-|-|----------------------------------------------|




e:-------|-----------------------------------------------|-----|
B:-o-///-|-----------------------------------------------|-o-/-|
G:--///--|r(7)--r(9)--r(7)--------r(7)--r(9)--r(7)-------|--/--|
D:-///-o-|------------------r(7)--------------------r(7)-|-/-o-|
A:-------|-----------------------------------------------|-----|
E:-------|-----------------------------------------------|-----|




  2nd Verse
e:-------------|------------------|---------------|------------------||
B:-------------|------------------|---------------|------------------||
G:---4---------|---------4--------|---------------|------------------||
D:------2------|------2-----2-----|---2-----------|---------2--------||
A:2------------|------------------|2-----3--------|------3-----3-----||
E:0------------|------------------|0--------------|------------------||


  (2nd gtr 1 octave down)
  Bridge
e:----------------------------|-----------------------------|
B:---------12b(14)-12-10------|-----------------------------|
G:9-----9----------------11~--|---9-----12b14--12--9--------|
D:---9------------------------|9-----9----------------7~----|
A:----------------------------|-----------------------------|
E:----------------------------|-----------------------------|



  A chord diagramC5C5           A chord diagramB5B5        A chord diagramBsus2Bsus2   A chord diagramBB      A chord diagramC5C5         A chord diagramB5B5
e:------------------|------------------|----------------|
B:------------------|------5-----4-----|----------------|
G:5-------/7---4----|------4-----4-----|5-----/7---4----|
D:5------------4----|------4-----4-----|5----------4----|
A:3-------/5---2----|----2-2---2-2-----|3-----/5---2----|
E:------------------|------------------|----------------|



       A chord diagramBsus2Bsus2     A chord diagramBB      Chorus
e:---------------------|------------------|------------------|
B:-------5-----5-4-----|---12-------------|---13-------------|
G:---------4-------4---|9-----12----------|9-----12----------|
D:-----------4-------4-|------------------|------------------|
A:-----2---------------|------------------|------------------|
E:---------------------|------------------|------------------|




e:------------------|----------------------------|
B:---12-------------|-------------------13-------|
G:------12----------|11-12-9~--------12----11~---|
D:12----------------|----------------------------|
A:------------------|----------------------------|
E:------------------|----------------------------|




  Solo
e:---------------------------|------------------------------|
B:---------------------------|---------/12~--13~--15~-------|
G:/5-4-5--/12~-11~-9~-7b(9)~-|/5-4--5-----------------11-12-|
D:---------------------------|------------------------------|
A:---------------------------|------------------------------|
E:---------------------------|------------------------------|




e:------------------------------------|------------------------------|
B:15-------15----15---15--------------|12----------------------------|
G:14b(16)--[16]-[16]--b(16)14--12-14~-|12-14-------12b(14)-11~-------|
D:------------------------------------|------------------------------|
A:------------------------------------|------------------------------|
E:------------------------------------|------------------------------|




e:--------------------------|-------------------------|
B:--------------------------|-------------------------|
G:11-12-11-12b(11)----------|----14-12\11-11/12-12\11-|
D:-----------------14-------|/12----------------------|
A:--------------------------|-------------------------|
E:--------------------------|-------------------------|




e:------------------------------------------|
B:------------------------------------------|
G:'9'--r(9)--r(7)--r(7)--r(5)--5--4---------|
D:-----------------------------------7--4~--|
A:------------------------------------------|
E:------------------------------------------|



                                ________                 _______________
e:------------------------------12-14-12-14--------12-14-14b[15]b[14]-12---|
B:------15b(17)~---15b[17]b[15]------------------------------------------15|
G:-------------------------------------------------------------------------|
D:-------------------------------------------------------------------------|
A:-------------------------------------------------------------------------|
E:-------------------------------------------------------------------------|




                                    _____
e:-------15-17b(19)----17b(19)-b(19)17-15-|17~-------15~-------|
B:---/15----------------------------------|--------------------|
G:----------------------------------------|--------------------|
D:----------------------------------------|--------------------|
A:----------------------------------------|--------------------|
E:----------------------------------------|--------------------|




e:----------------------------------|----------------|-----------------|
B:----------------------------------|---13-----------|----14-----------|
G:/5--4--5-----/11~-/9~--/7~--7--9--|10----13~~~-----|10------13-------|
D:----------------------------------|----------------|-----------------|
A:----------------------------------|----------------|-----------------|
E:----------------------------------|----------------|-----------------|




e:---------------|---------------------------|
B:---13----------|-------------------13------|
G:------13-------|12-13-10~-------12----19~--|
D:13-------------|---------------------------|
A:---------------|---------------------------|
E:---------------|---------------------------|




e:----------------------------------|-----------------------------|
B:---------13b(15)-13~-11-----------|-----------------------------|
G:10----10----------------12~-------|---10----12b(14)-12-10--8~---|
D:---10-----------------------------|10----10---------------------|
A:----------------------------------|-----------------------------|
E:----------------------------------|-----------------------------|


----------
ⓘ Guitar tab for 'One More Time Around' by Queensrÿche, a heavy metal band formed in 1981 from Washington, USA. Queensrÿche is known for their reflective metal music.

Almost there ...

Sign in to get your own page with links to favourite songs and more. You are just one click away...

Login with Facebook Login with Google