Log in

One click and you are in

Login with Facebook Login with Google

Why sign up and log in

Guitar Tabs Explorer
Queensrÿche bass tabs for Lady jane

Bass tabs

Tuning: Standard (E A D G)

Prelude:
G|-------------------|-----------------------------------|
D|-------------------|-----------------------------------|
A|--7\0-000-000-000--|-0-000-000-000--0-000-000-000-000--|
E|-----------------3-|--------------/6-------------------|
Chorus:
G|-----------------------|
D|----------------7-5-7--|
A|-5-5/8\-5-5-0-0--------|
E|-----------------------|
                        x2
G|------------|----------------------|------------|
D|------------|----------------7-5-7-|--5-----5---|
A|-5-5/8\-----|-5-5/8\-5-5-0-0-------|-5-7-0-5-7--|
E|--------3-5-|----------------------|----------5-|


Verse:
G|----------------------7----------------------|
D|-----5--------7--------------8---------9-9-9-|
A|------------------5-5--5----------0-0-0-0-0--|
E|-3-3--3---5-5--5---------6-6--6--------------|

G|---------------------7------5-------3-------3---|-----------------|
D|----5-------7-----------------------------------|-----------------|
A|-----------------5-5--5--3-3--3--1-1--3--1-1--3-|-----------------|
E|-3-3--3--5-5--5---------------------------------|-5-5-5-5-5-5-5-5-|


Solo:
G|-----3-----3----7------7----3------3-----7-------------|
D|-------------------------------------------------------|
A|-1-1--1-1-1--5-5--5-5-5--1-1--1-1-1--5-5--5-5-5------3-|
E|------------------------------------------------3-5-6--|
 Bridge:
G|---------------------------------|
D|---------------------------------|
A|-----------------7-7-7-7-7-7-7-7-|
E|-5-5-5-5-5-5-5-5-----------------|

G|-----------------------------------------|
D|-----------------------------------------|
A|-5-3-2-1---------------------------------|
E|---------5-6-5-6-5-6-5-6-5-6-5-6-5-6-5-6-|


Chorus:
G|-----------------------|--------------|----------------|
D|----------------7-5-7--|--------------|----------------|
A|-5-5/8\-5-5-0-0--------|-5-5/8\-10-12-|-5-5/8\-5-5-0-0-|
E|-----------------------|--------------|----------------|

G|---------------------------|
D|-----5-5----------5-5------|
A|--5-5---7-7-0--5-5---7-7-0-| x8
E|---------------------------|


******************************

| h hammer on
| p pull off
| / slide up
| \ slide down

*******************************
ⓘ Bass guitar tab for 'Lady Jane' by Queensrÿche, a heavy metal band formed in 1981 from Washington, USA. Queensrÿche is known for their reflective metal music.

Almost there ...

Sign in to get your own page with links to favourite songs and more. You are just one click away...

Login with Facebook Login with Google