Log in

One click and you are in

Login with Facebook Login with Google

Why sign up and log in

Guitar Tabs Explorer
Queensrÿche bass tabs for I dont believe in love

I Don't Believe In Love bass tab by Queensrÿche

Queensrÿche bass tabs for I dont believe in love

Bass tabs with lyrics

Standard tuning, Drop D (DADG)

🏷Legend:
* = staccato
/ = slide up
\ = slide down
() = sustained note
r = rest
h = hammer on
p = pull off
s = 16th note (appears above bar)

INTRO:
    (Rest x3)
G |-----------------||-----------------|
D |-----------------||-----------------|
A |-----------------||---------------3-|
D |-r---------------||-r---------------|
  1 & 2 & 3 & 4 &  1 & 2 & 3 & 4 &

   ss ss ss ss  ss ss ss    ss ss ss   2/4
G |-----------------|-----------------|-----------------|---------|
D |-----------------|-----------------|-----------------|---------|
A |-5-555*555*555*55|-5*555*555*555-3-|-5*555*555*555*3-|-3\1-1-1-|
D |-----------------|-----------------|-----------------|---------|
  1 & 2 & 3 & 4 &  1 & 2 & 3 & 4 &  1 & 2 & 3 & 4 &  1 & 2 &

  4/4
G |-----------------|-----------------|
D |-----------------|-----------------|
A |(1)--1-----1---1-|/13--------------|
D |-----------------|-----------------|
  1 & 2 & 3 & 4 &  1 & 2 & 3 & 4 &

VERSE 1:
              ss
G |-----------------|-----------------|-----------------|-----------------|
D |-----------------|-----------------|-----------------|-----------------|
A |-----------------|-----5-003-5-----|-----------------|-----------------|
D |-0-0-0-0-0-0-0-0-|-0-0---------0-0-|-0-0-0-0-0-0-0-0-|-0-0-0-0-0-3-5-0-|
  1 & 2 & 3 & 4 &  1 & 2 & 3 & 4 &  1 & 2 & 3 & 4 &  1 & 2 & 3 & 4 &

     ss                 ss
G |-----------------|-----------------|-----------------|-----------------|
D |-----------------|-----------------|-----------------|-----------5-7---|
A |-----5-003-5-----|-----------------|-----5-003-5-----|-----5-5-5-------|
D |-0-0---------0-0-|-0-0-0-0-0-0-0-0-|-0-0---------0-0-|-0-0-----------0-|
  1 & 2 & 3 & 4 &  1 & 2 & 3 & 4 &  1 & 2 & 3 & 4 &  1 & 2 & 3 & 4 &

              ss
G |-----------------|-----------------|-----------------|-----------------|
D |-----------------|-----------------|-----------------|-----------------|
A |-----------------|-----5-003-5-----|-----------------|-----------------|
D |(0)0-0-0-0-0-0-0-|-0-0---------0-0-|-0-0-0-0-0-0-0-0-|-0-0-0-0-0-3-5-0-|
  1 & 2 & 3 & 4 &  1 & 2 & 3 & 4 &  1 & 2 & 3 & 4 &  1 & 2 & 3 & 4 &

     ss                 ss
G |-----------------|-----------------|-----------------|-----------------|
D |-----------------|-----------------|-----------------|-----------5-7---|
A |-----5-003-5-----|-----------------|-----5-003-5-----|-----5-5-5-------|
D |-0-0---------0-0-|-0-0-0-0-0-0-0-0-|-0-0---------0-0-|-0-0-----------0-|
  1 & 2 & 3 & 4 &  1 & 2 & 3 & 4 &  1 & 2 & 3 & 4 &  1 & 2 & 3 & 4 &


PRE-CHORUS:
        ( x3 )
     ss        ss
G |-----------------|-----------------||-----------------|-----------------|
D |-----------------|-----------------||-----------------|-----------------|
A |-----5-003-5-----|-----5-003-5-----||-5-5-5-5-5-5-5-5-|-5-5-5-5-5-0-3-5-|
D |(0)0---------3-5-|-0-0---------3-0-||-----------------|-----------------|
  1 & 2 & 3 & 4 &  1 & 2 & 3 & 4 &  1 & 2 & 3 & 4 &  1 & 2 & 3 & 4 &


CHORUS 1:

   ss ss ss ss  ss ss ss    ss ss ss
G |-----------------|-----------------|-----------------|-----------------|
D |-----------------|-----------------|-----------------|-----------------|
A |(5)555*555*555*55|-5*555*555*555-3-|-5*555*555*555*3-|-3\1-1-1-------3-|
D |-----------------|-----------------|-----------------|-----------------|
  1 & 2 & 3 & 4 &  1 & 2 & 3 & 4 &  1 & 2 & 3 & 4 &  1 & 2 & 3 & 4 &

   ss ss ss ss  ss ss ss    ss ss ss   2/4
G |-----------------|-----------------|-----------------|---------|
D |-----------------|-----------------|-----------------|---------|
A |-5*555*555*555*55|-5*555*555*555-3-|-5*555*555*555*3-|-3\1-1-1-|
D |-----------------|-----------------|-----------------|---------|
  1 & 2 & 3 & 4 &  1 & 2 & 3 & 4 &  1 & 2 & 3 & 4 &  1 & 2 &

  4/4
G |-----------------|------------------|
D |-----------------|------------------|
A |(1)-----------/13|(13)-----------15-|
D |-----------------|------------------|
  1 & 2 & 3 & 4 &  1 & 2 & 3 & 4 &


PRE-VERSE:

G |-----------------|-----------------|
D |-----------------|-----------------|
A |-----------------|-----------------|
D |-0-0-0-0-0-0-0-0-|-0-0-0-0-0-3-5-0-|
  1 & 2 & 3 & 4 &  1 & 2 & 3 & 4 &


VERSE 2 (x2):
              ss
G |-----------------|-----------------|-----------------|-----------------|
D |-----------------|-----------------|-----------------|-----------------|
A |-----------------|-----5-003-5-----|-----------------|-----------------|
D |-0-0-0-0-0-0-0-0-|-0-0---------0-0-|-0-0-0-0-0-0-0-0-|-0-0-0-0-0-3-5-0-|
  1 & 2 & 3 & 4 &  1 & 2 & 3 & 4 &  1 & 2 & 3 & 4 &  1 & 2 & 3 & 4 &


PRE-CHORUS:
        ( x3 )
     ss        ss
G |-----------------|-----------------||-----------------|-----------------|
D |-----------------|-----------------||-----------------|-----------------|
A |-----5-003-5-----|-----5-003-5-----||-5-5-5-5-5-5-5-5-|-5-5-5-5-5-0-3-5-|
D |(0)0---------3-5-|-0-0---------3-0-||-----------------|-----------------|
  1 & 2 & 3 & 4 &  1 & 2 & 3 & 4 &  1 & 2 & 3 & 4 &  1 & 2 & 3 & 4 &


CHORUS 2 (Repeat 1st staff x2):

   ss ss ss ss  ss ss ss    ss ss ss
G |-----------------|-----------------|-----------------|-----------------|
D |-----------------|-----------------|-----------------|-----------------|
A |(5)555*555*555*55|-5*555*555*555-3-|-5*555*555*555*3-|-3\1-1-1-------3-|
D |-----------------|-----------------|-----------------|-----------------|
  1 & 2 & 3 & 4 &  1 & 2 & 3 & 4 &  1 & 2 & 3 & 4 &  1 & 2 & 3 & 4 &

   ss ss ss ss  ss ss      ss ss ss
G |-----------------|-----------------|-----------------|-----------------|
D |-----------------|-----------------|-----------------|-----------------|
A |-5*555*555*555*55|-5*555*555-3-r-3-|-5*555*555*555*3-|-3\1-1-1-------3-|
D |-----------------|-----------------|-----------------|-----------------|
  1 & 2 & 3 & 4 &  1 & 2 & 3 & 4 &  1 & 2 & 3 & 4 &  1 & 2 & 3 & 4 &

   ss ss ss ss  ss ss ss    ss ss ss
G |-----------------|-----------------|-----------------|-----------------|
D |-----------------|-----------------|-----------------|-----------------|
A |-5*555*555*555*55|-5*555*555*555-3-|-5*555*555*555*3-|-3\1-1-1---------|
D |-----------------|-----------------|-----------------|---------------5-|
  1 & 2 & 3 & 4 &  1 & 2 & 3 & 4 &  1 & 2 & 3 & 4 &  1 & 2 & 3 & 4 &


GUITAR SOLO:

G |-----------------|-----------------|-----------------|-----------------|
D |-----------------|-----------------|-----------------|-----------------|
A |-----------------|-----------------|-----------------|-----------------|
D |(5)5-5-5-5-5-5-5-|-5-5-5-5-5-0-3-5-|(5)5-5-5-5-5-5-5-|-5-5-5-3---0-3-5-|
  1 & 2 & 3 & 4 &  1 & 2 & 3 & 4 &  1 & 2 & 3 & 4 &  1 & 2 & 3 & 4 &

G |-----------------|-----------------|-----------------|-----------------|
D |-----------------|-----------------|---5-----5---5---|-----------------|
A |-----------------|-----------------|-----------------|-------8---6-5-6-|
D |(5)5-5-5-5-5-5-5-|-5-5-5-5-5-0-3-5-|(5)--5-5---5---5-|-0-3-5-----------|
  1 & 2 & 3 & 4 &  1 & 2 & 3 & 4 &  1 & 2 & 3 & 4 &  1 & 2 & 3 & 4 &

G |-----------------|-----------------|-----------------|-----------------|
D |---------8-------|-----------------|-----------------|-----------------|
A |(6)6-6-6---6-6-3-|(3)3-3-3-3-3-3---|-----------------|---------------6-|
D |-----------------|---------------5-|-0-3-5-0-3-5-0-5-|-0-3-5-0-3-5-0---|
  1 & 2 & 3 & 4 &  1 & 2 & 3 & 4 &  1 & 2 & 3 & 4 &  1 & 2 & 3 & 4 &

G |-----------------|-----------------|-----------------|
D |---------8-------|-----------------|-----------------|
A |(6)6-6-6---6-6-3-|(3)3-3-3-3-3-3-5-|-r---------------|
D |-----------------|-----------------|---------------0-|
  1 & 2 & 3 & 4 &  1 & 2 & 3 & 4 &  1 & 2 & 3 & 4 &


PRE-CHORUS:
        ( x3 )
     ss        ss         ss  s s     sss s
G |-----------------|-----------------||----------------7-|(7)7-7-777p5------|
D |-----------------|-----------------||-------------5h7--|------------7-5---|
A |-----5-003-5-----|-----5-003-5-----||-----5-003-5------|----------------5-|
D |(0)0---------3-5-|-0-0---------3-0-||(0)0--------------|------------------|
  1 & 2 & 3 & 4 &  1 & 2 & 3 & 4 &  1 & 2 & 3 & 4 &  1 & 2 & 3 & 4 &


CHORUS 3 (Repeat 1st staff x2):

   ss ss ss ss  ss ss ss    ss ss ss
G |-----------------|-----------------|-----------------|-----------------|
D |-----------------|-----------------|-----------------|-----------------|
A |(5)555*555*555*55|-5*555*555*555-3-|-5*555*555*555*3-|-3\1-1-1-------3-|
D |-----------------|-----------------|-----------------|-----------------|
  1 & 2 & 3 & 4 &  1 & 2 & 3 & 4 &  1 & 2 & 3 & 4 &  1 & 2 & 3 & 4 &

   ss ss ss ss  ss ss      ss ss ss
G |-----------------|-----------------|-----------------|-----------------|
D |-----------------|-----------------|-----------------|-----------------|
A |-5*555*555*555*55|-5*555*555-3-r-3-|-5*555*555*555*3-|-3\1-1-1-------3-|
D |-----------------|-----------------|-----------------|-----------------|
  1 & 2 & 3 & 4 &  1 & 2 & 3 & 4 &  1 & 2 & 3 & 4 &  1 & 2 & 3 & 4 &

   ss ss ss ss  ss ss ss    ss ss ss   2/4
G |-----------------|-----------------|-----------------|---------|
D |-----------------|-----------------|-----------------|---------|
A |-5*555*555*555*55|-5*555*555*555-3-|-5*555*555*555*3-|-3\1-1-1-|
D |-----------------|-----------------|-----------------|---------|
  1 & 2 & 3 & 4 &  1 & 2 & 3 & 4 &  1 & 2 & 3 & 4 &  1 & 2 &


OUTRO:

  4/4     ( x3 )
G |-----------------|-----------------||-----------------|-----------------|
D |---------------8-|(8)--------------||---------------8-|(8)8-8-8-8-8-8---|
A |(1)----------/---|---------------1-||(1)-----------/--|-----------------|
D |-----------------|-----------------||-----------------|---------------0-|
  1 & 2 & 3 & 4 &  1 & 2 & 3 & 4 &  1 & 2 & 3 & 4 &  1 & 2 & 3 & 4 &

  (Let ring)
G |-----------------|
D |-----------------|
A |-----------------|
D |(0)--------------|
  1 & 2 & 3 & 4 &

Follow along with the song:
ⓘ Bass guitar tab for 'I Dont Believe In Love' by Queensrÿche, a heavy metal band formed in 1981 from Washington, USA. Queensrÿche is known for their reflective metal music.

Almost there ...

Sign in to get your own page with links to favourite songs and more. You are just one click away...

Login with Facebook Login with Google