Log in

One click and you are in

Login with Facebook Login with Google

Why sign up and log in

Guitar Tabs Explorer
Queensrÿche bass tabs for Get a life

Bass tabs

Tuning: Drop D (D A D G)


 Intro:
G|-----------------------------|---------------------------------------------|
D|-----------------------------|--------4-4--------4-4--------4-4--------4-4-|
A|-----------------------------|---------------------------------------------|
D|-3-1-3--3-1-3--3-1-3--3-1-3--|-3-1-3-4----3-1-3-4---3-1-3-4----3-1-3-4-----|

 Verse:     x8
G|-----------------|--------|
D|-----------------|--------|x4
A|-----------------|--------|
D|-3-3-3-3-3-3-3-3-|-1-4-3--|

G|------------------------------------|
D|------------------------------------|
A|---3-3--4-4h5-3-1-1h3-1h3-4-4h5-3---|
D|-1-------------1-----------------1--|

 Bridge:       Chorus:     x4
G|--------------------|-------------------|
D|--------------------|-------------------|
A|--------------------|-7-7\1----7-7\1----|
D|-1--1-1-1-1-1-1-1-1-|------4-4------4-4-|

 Bridge:
G|-----------------------------------------|
D|--------44--------44--------44--------44-|
A|-----------------------------------------|
D|-3-1-3-4--3-1-3-4---3-1-3-4---3-1-3-4----|

 Verse:     x8
G|-----------------|--------|
D|-----------------|--------|x2
A|-----------------|--------|
D|-3-3-3-3-3-3-3-3-|-1-4-3--|

G|------------------------------------|
D|------------------------------------|
A|---3-3--4-4h5-3-1-1h3-1h3-4-4h5-3---|
D|-1-------------1-----------------1--|

 Bridge:       Chorus:     x4
G|--------------------|-------------------|
D|--------------------|-------------------|
A|--------------------|-7-7\1----7-7\1----|
D|-1--1-1-1-1-1-1-1-1-|------4-4------4-4-|

 Solo:
G|------------------------------|
D|------------------------------|
A|------------------------------|
D|-3-3-1\4-3-3-1\4-3-3-1\4-3-3--|

G|------------------------------------|
D|------------------------------------|
A|---3-3--4-4h5-3-1-1h3-1h3-4-4h5-3---|
D|-1-------------1-----------------1--|

 Bridge:       Chorus:     x8
G|--------------------|-------------------|---|
D|--------------------|-------------------|---|
A|--------------------|-7-7\1----7-7\1----|---|
D|-1--1-1-1-1-1-1-1-1-|------4-4------4-4-|-3-|


************************************

| h Hammer-on
| \ Slide down

************************************
ⓘ Bass guitar tab for 'Get A Life' by Queensrÿche, a heavy metal band formed in 1981 from Washington, USA. Queensrÿche is known for their reflective metal music.

Almost there ...

Sign in to get your own page with links to favourite songs and more. You are just one click away...

Login with Facebook Login with Google