Log in

One click and you are in

Login with Facebook Login with Google

Why sign up and log in

Guitar Tabs Explorer
Queensrÿche bass tabs for Eyes of a stranger

Bass tabs with lyrics

Standard tuning, Drop D (DADG)

🏷Legend:
r = rest
/ = slide up
h = hammer on
p = pull off
()= sustained note
/() = legatto slide
s = 16th note (appears above bar)

INTRO:
  (Synth; rest x16)
G |-----------------|
D |-----------------|
A |-----------------|
D |-r---------------|
  1 & 2 & 3 & 4 &
              s    ss             s
G |-----------------|-----------------|-----------------|-----------------|
D |-----------------|-----------------|-----------------|-----------------|
A |-----------------|-3-3-3-3---------|-----------------|-3-3-3-35--------|
D |-2-2-2-2-2-2-2-2-|--------5--5-5-00|-2-2-2-2-2-2-2-2-|-----------5-4-2/|
  1 & 2 & 3 & 4 &  1 & 2 & 3 & 4 &  1 & 2 & 3 & 4 &  1 & 2 & 3 & 4 &

   ss s  ss s   ss              ss  ss          (x2)
G |-----------------|-----------------|-----------------|-----------------||-----------------|
D |-----9-------9---|-----------------|-----9-------9---|-----------------||-----------------|
A |-7-77--77--77--77|-3-333-----------|-7-7---7---7---77|-3-333-5---------||-----------------|
D |-----------------|-------5---5-5---|-----------------|-----------5-4-2-||(2)--------------|
  1 & 2 & 3 & 4 &  1 & 2 & 3 & 4 &  1 & 2 & 3 & 4 &  1 & 2 & 3 & 4 &  1 & 2 & 3 & 4 &
VERSE 1:
         (x4)                      s
G |-----------------|-----------------||-----------------|-----------------|
D |-----------------|-----------------||-----------------|-----------------|
A |-----------------|-----------------||-----------------|-----------------|
D |-4-r-------4-r---|-2-r-------2-r-2-||-4-r-------4-r---|-2-r----02-2-r---|
  1 & 2 & 3 & 4 &  1 & 2 & 3 & 4 &  1 & 2 & 3 & 4 &  1 & 2 & 3 & 4 &

         (x3)                      s
G |-----------------|-----------------||-----------------|-----------------|
D |-----------------|-----------------||-----------------|-----------------|
A |-----------------|-----------------||-----------------|-----------------|
D |-4-r-------4-r---|-2-r-------2-r-2-||-4-r-------4-r---|-2-r----02-2-r-0-|
  1 & 2 & 3 & 4 &  1 & 2 & 3 & 4 &  1 & 2 & 3 & 4 &  1 & 2 & 3 & 4 &


PRE-CHORUS:

G |-----------------|-----------------|-----------------|-----------------|
D |-----------------|-----------------|-----------------|-----------------|
A |---------------3-|-3-3-3-----------|---------------3-|(3)3-3-5---------|
D |-2-2-2-2-2-2-2---|-------5-5-5-5-0-|-2-2-2-2-2-2-2---|-----------5-4-2-|
  1 & 2 & 3 & 4 &  1 & 2 & 3 & 4 &  1 & 2 & 3 & 4 &  1 & 2 & 3 & 4 &

   ss ss ss ss  ss ss
G |-----------------|-----------------|
D |-----------------|-----------5-4---|
A |-3-333-333-333-33|-3-333-333-----5-|
D |-----------------|-----------------|
  1 & 2 & 3 & 4 &  1 & 2 & 3 & 4 &


CHORUS 1:
   ss s  ss s   ss s  ss ss  ss ss ss ss  ss ss
G |-----------------|-----------------|-----------------|-----------------|
D |-----------------|-----------------|-----------------|-----------------|
A |-----------------|-----------------|-3-333-333-333-02|-3-333-333-3/5-5-|
D |-2-222-02--222-02|(2)222-02--222-00|-----------------|-----------------|
  1 & 2 & 3 & 4 &  1 & 2 & 3 & 4 &  1 & 2 & 3 & 4 &  1 & 2 & 3 & 4 &

  s s s s s s s   s s s s       ss ss ss ss  ss ss
G |-----------------|-----------------|-----------------|-----------------|
D |-----------------|-----------------|-----------------|-----------5-4---|
A |-----------------|-----------------|-3-333-333-333-33|-3-333-333-----5-|
D |-2r2r2r2r2r2r2r0-|-2r2r2r2r2-0-2-0-|-----------------|-----------------|
  1 & 2 & 3 & 4 &  1 & 2 & 3 & 4 &  1 & 2 & 3 & 4 &  1 & 2 & 3 & 4 &

   ss s  ss s   ss s  ss    ss ss ss ss  ss ss
G |-----------------|-----------------|-----------------|-----------------|
D |-----------------|-----------------|-----------------|-----------------|
A |-----------------|-----------------|-3-333-333-333-33|-3-333-333-5-5---|
D |-2-222-02--222-02|(2)222-02--222-0-|-----------------|-----------------|
  1 & 2 & 3 & 4 &  1 & 2 & 3 & 4 &  1 & 2 & 3 & 4 &  1 & 2 & 3 & 4 &


PRE-VERSE:
       s s
G |-----------------|-----------------|
D |-----------------|-----------------|
A |-----------------|-----------------|
D |-2---2-----2r-2r-|-2---2-------22r-|
  1 & 2 & 3 & 4 &  1 & 2 & 3 & 4 &


VERSE 3 (x2):

G |-----------------|-----------------|-----------------|-----------------|
D |-----------------|-----------------|-----------------|-----------------|
A |-----------------|-----------------|-----------------|-----------------|
D |-2---2-----2-2-r-|-2---2-----0-2-r-|-2---2-----2-2-r-|-0---0-----0-0-r-|
  1 & 2 & 3 & 4 &  1 & 2 & 3 & 4 &  1 & 2 & 3 & 4 &  1 & 2 & 3 & 4 &


PRE-CHORUS:
   ss ss ss ss  ss ss
G |-----------------|-----------------|
D |-----------------|-----------5-4---|
A |-3-333-333-333-33|-3-333-333-----5-|
D |-----------------|-----------------|
  1 & 2 & 3 & 4 &  1 & 2 & 3 & 4 &


CHORUS 2:
   ss s  ss s   ss s  ss    ss ss ss ss  ss ss
G |-----------------|-----------------|-----------------|-----------------|
D |-----------------|-----------------|-----------------|-----------------|
A |-----------------|-----------------|-3-333-333-333-02|-3-333-333-3/5-5-|
D |-2-222-02--222-02|(2)222-02--222-0-|-----------------|-----------------|
  1 & 2 & 3 & 4 &  1 & 2 & 3 & 4 &  1 & 2 & 3 & 4 &  1 & 2 & 3 & 4 &

  s s s s s s s   s s s s       ss ss ss ss  ss ss
G |-----------------|-----------------|-----------------|-----------------|
D |-----------------|-----------------|-----------------|-----------5-4---|
A |-----------------|-----------------|-3-333-333-333-33|-3-333-333-----5-|
D |-2r2r2r2r2r2r2r0-|-2r2r2r2r2-0-2-0-|-----------------|-----------------|
  1 & 2 & 3 & 4 &  1 & 2 & 3 & 4 &  1 & 2 & 3 & 4 &  1 & 2 & 3 & 4 &

   ss s  ss s   ss s  ss ss  ss ss ss ss  ss ss
G |-----------------|-----------------|-----------------|-----------------|
D |-----------------|-----------------|-----------------|-----------------|
A |-----------------|-----------------|-3-333-333-333-33|-0-000-000-0-2-/-|
D |-2-222-02--222-02|(2)222-02--222-0-|-----------------|-----------------|
  1 & 2 & 3 & 4 &  1 & 2 & 3 & 4 &  1 & 2 & 3 & 4 &  1 & 2 & 3 & 4 &

G |-----------------|-----------------|
D |-----------------|-----------------|
A |-7---------------|(7)--------------|
D |-----------------|-----------------|
  1 & 2 & 3 & 4 &  1 & 2 & 3 & 4 &


GUITAR SOLO:
          s         s         s         s
G |-----------------|-----------------|-----------------|-----------------|
D |-----------------|-----------------|-----------------|-----------------|
A |-----------------|-----------------|-----------------|-----------------|
D |-2--------------0|-r-0------------2|-r-2------------0|-r-0----0r-0----2|
  1 & 2 & 3 & 4 &  1 & 2 & 3 & 4 &  1 & 2 & 3 & 4 &  1 & 2 & 3 & 4 &

          s         s           ss
G |-----------------|-----------------|-----------------|-----------------|
D |-----------------|-----------------|-----------------|-------5---5-7-7-|
A |-----------------|-----------------|-----------------|-3-333-----------|
D |-r-2------------0|-r-0------------2|-r-2-------------|-----------------|
  1 & 2 & 3 & 4 &  1 & 2 & 3 & 4 &  1 & 2 & 3 & 4 &  1 & 2 & 3 & 4 &

   ss s  ss ss           ss s  ss ss  ss   ssss
G |-----------------|-----------------|-----------------|------------p-p--|
D |-----9-------9---|-------------5---|-----9-------9---|-----------5454--|
A |-7-77--77--77--77|-3-3-3-5---7---7-|-7-77--77--77--77|-5-555-5-5-----5-|
D |-----------------|-----------------|-----------------|-----------------|
  1 & 2 & 3 & 4 &  1 & 2 & 3 & 4 &  1 & 2 & 3 & 4 &  1 & 2 & 3 & 4 &

   ss s  ss        ssss   ss s  ss ss
G |-----------------|-----------------|-----------------|-----------------|
D |-----9-------9---|-------------5---|-----9-------9---|-----------------|
A |-7-77--77--77--7-|-3-3-3-5---77--7-|-7-77--77--77--77|-3-3-3-------0-0-|
D |-----------------|-----------------|-----------------|-------5-5-5-----|
  1 & 2 & 3 & 4 &  1 & 2 & 3 & 4 &  1 & 2 & 3 & 4 &  1 & 2 & 3 & 4 &


BRIDGE:
   ss ss ss ss  ss ss ss ss  ss ss ss ss  ss ss
G |-----------------|-----------------|-----------------|-----------------|
D |-----------------|-----------------|-----------------|-----------------|
A |-2-222-222-222-22|-3-333-000-000-00|-2-222-222-222-22|-3-333-----------|
D |-----------------|-----------------|-----------------|-------555-4-4-2-|
  1 & 2 & 3 & 4 &  1 & 2 & 3 & 4 &  1 & 2 & 3 & 4 &  1 & 2 & 3 & 4 &

   ss ss ss ss  ss
G |-----------------|-----------------|-----------------|-----------------|
D |-----------------|-----------------|-----------------|-----------------|
A |-0-000-000-000-00|-----------------|-----------------|-----------------|
D |-----------------|-5-555-4-4-4-2-2/|-7-r-------7-r-4-|-5-r-------------|
  1 & 2 & 3 & 4 &  1 & 2 & 3 & 4 &  1 & 2 & 3 & 4 &  1 & 2 & 3 & 4 &

G |-----------------|-----------------|
D |-----------------|-----------5-4---|
A |-3---------------|(3)------------5-|
D |-----------------|-----------------|
  1 & 2 & 3 & 4 &  1 & 2 & 3 & 4 &


CHORUS 3:
   ss s  ss s   ss s  ss ss  ss ss ss ss  ss ss ss
G |-----------------|-----------------|-----------------|-----------------|
D |-----------------|-----------------|-----------------|-----------------|
A |-----------------|-----------------|-3-333-333-333-33|-3-333-333-335-5-|
D |-2-222-02--222-02|(2)222-02--222-00|-----------------|-----------------|
  1 & 2 & 3 & 4 &  1 & 2 & 3 & 4 &  1 & 2 & 3 & 4 &  1 & 2 & 3 & 4 &

  s s s s s s s ss           ss ss ss ss  ss ss
G |-----------------|-----------------|-----------------|-----------------|
D |-----------------|-----------------|-----------------|-----------5-4---|
A |-----------------|-------------5-r-|-3-333-333-333-33|-3-333-333-----5-|
D |-2r2r2r2r2r2r2r00|-2-r-2-r-2-r-----|-----------------|-----------------|
  1 & 2 & 3 & 4 &  1 & 2 & 3 & 4 &  1 & 2 & 3 & 4 &  1 & 2 & 3 & 4 &

   ss s  ss s   ss s  sss    ss ss ss ss  ss ss
G |-----------------|-----------------|-----------------|-----------------|
D |-----------------|-----------------|-----------------|-----------------|
A |-----------------|-----------------|-3-333-333-333-33|-3-333-333-5-5---|
D |-2-222-02--222-02|(2)222-02--222-0-|-----------------|-----------------|
  1 & 2 & 3 & 4 &  1 & 2 & 3 & 4 &  1 & 2 & 3 & 4 &  1 & 2 & 3 & 4 &


PRE-OUTRO:

G |-----------------|-----------------|-----------------|-----------------|
D |-----------------|-----------------|-----------------|-----------------|
A |-----------------|-----------------|-----------------|---------------5-|
D |-2---------------|(2)----------5---|-2---------------|(2)--------------|
  1 & 2 & 3 & 4 &  1 & 2 & 3 & 4 &  1 & 2 & 3 & 4 &  1 & 2 & 3 & 4 &
                              sss s ssssss
G |-----------------|------------------|-----------------|--h-------h------|
D |-----------------|------------------|-----------------|-0222-22-022220--|
A |-7---------------|-7-7-7/(10)-------|-----------------|---------------2-|
D |-----------------|------------------|-2---------------|-----------------|
  1 & 2 & 3 & 4 &  1 & 2 & 3 & 4 &  1 & 2 & 3 & 4 &  1 & 2 & 3 & 4 &


OUTRO (Repeat to fade-out):

G |-----------------|-----------------|-----------------|-----------------|
D |-----------------|-----------------|-----------------|-----------------|
A |-----------------|-3-3-3-----------|-----------------|-3-3-3-5---------|
D |-2-2-2-2-2-2-2-2-|-------5-5-5-5-0-|-2-2-2-2-2-2-2-2-|-----------5-4-0-|
  1 & 2 & 3 & 4 &  1 & 2 & 3 & 4 &  1 & 2 & 3 & 4 &  1 & 2 & 3 & 4 &
ⓘ Bass guitar tab for 'Eyes Of A Stranger' by Queensrÿche, a heavy metal band formed in 1981 from Washington, USA. Queensrÿche is known for their reflective metal music.

Almost there ...

Sign in to get your own page with links to favourite songs and more. You are just one click away...

Login with Facebook Login with Google