Log in

One click and you are in

Login with Facebook Login with Google

Why sign up and log in

Guitar Tabs Explorer
Queensrÿche bass tabs for Della brown

Bass tabs

Tuning: Standard (E A D G)


Intro:
G|---------5h7-----------|-------5h7----------------|
D|-----------------------|--------------------------|
A|-0--5h7-0---0---5h7--5-|-0--5h7----0--5h7-0--5-3--|
E|---5----------5--------|---5---------5------0-----|

G|----------5h7-------------|-----------------|
D|-----------------------0--|-----------------|
A|-0---5h7-0---0---5h7-5----|-0---5h7-0-------|
E|---5-----------5----------|---5-------3-2-1-|
Verse:
G|----------5h7-5------------|-------------------------|
D|-------------------------0-|-------------------------|
A|-0---5h7-0-----0-0-5h7-0---|-0---5h7-0-------0-2h3-2-|x3
E|---5-----------------------|---5-------3-2-1---------|

G|----------5h7-5------------|-----------------|
D|-------------------------0-|-----------------|
A|-0---5h7-0-----0-0-5h7-0---|-0---5h7-0-------|x
E|---5-----------------------|---5-------3-2-1-|


Chorus:
G|-----------------------|
D|----7------------------|
A|------------0-2h-0p2-5-|
E|-5----5\-/5------------|


Bridge:
G|---------5h7-----------|--------5h7---------------|
D|-----------------------|--------------3---3-3-3---|
A|-0--5h7-0---0---5h7--5-|-0--5h7--------3-------3--|
E|---5----------5--------|---5-------1-1--1-------1-|
Verse:
G|----------5h7-5------------|-------------------------|
D|-------------------------0-|-------------------------|
A|-0---5h7-0-----0---5h7-0---|-0---5h7-0-------0-2h3-2-|x2
E|---5-------------5---------|---5-------3-2-1---------|

G|----------5h7-5----------3-5-|-----------------|
D|-------------------------3-5-|-----------------|
A|-0---5h7-0-----0-0-5h7-0-5-3-|-0---5h7-0-------|x
E|---5-------------------------|---5-------3-2-1-|


Chorus:
G|-----------------------|
D|----7------------------|
A|------------0-2h-0p2-5-|
E|-5----5\-/5------------|


Solo:
G|-------------------------------------------------|
D|-------5-------------5-------------5-------------|
A|-0-0-5--5-0----0-0-5--5-0----0-0-5--5-0----3-3-5-|
E|-------------------------------------------------|

G|----------------------------------------------------------|
D|-------5-----------5-----------5----------5---------------|
A|-0-0-5--5-0--0-0-5--5-0--0-0-5--5-0--0-0-5--5-0--3-2----5-|
E|----------------------------------------------------3-2---|


Verse:
G|----------5h7-5------------|-------------------------|
D|-------------------------0-|-------------------------|
A|-0---5h7-0-----0---5h7-0---|-0---5h7-0-------0-2h3-2-|x3
E|---5-------------5---------|---5-------3-2-1---------|

G|----------5h7-5-----------5-3-5-|-----------------|
D|--------------------------5-3-5-|-----------------|
A|-0---5h7-0-----0-0-5h7-0--3-5-3-|-0---5h7-0-------|x
E|---5----------------------------|---5-------3-2-1-|


Chorus:
G|-----------------------|
D|----7------------------|
A|------------0-2h-0p2-5-|
E|-5----5\-/5------------|


Outro:
G|---------5h7-----------|
D|---------------------0-|
A|-0-5h7-0----0--5h7-0---|x3
E|--5----------5---------|

G|---------5h7------------------------|
D|------------------------------------|
A|-0-5h7-0----0--5h7-0--0-2-3-5-3-2-0-|
E|--5----------5----------------------|

G|---------5h7-----------|
D|---------------------0-|
A|-0-5h7-0----0--5h7-0---|x3
E|--5----------5---------|

G|---------5h7------------------------|
D|------------------------------------|
A|-0-5h7-0----0--5h7-0--0-2-3-5-3-2-0-|
E|--5----------5----------------------|

G|---------5h7-----------|-------5h7-------------|
D|---------------------0-|--------------------0--|
A|-0--5h7-0---0---5h7-0--|-0--5h7----0--5h7-0----|x2
E|---5----------5--------|---5---------5---------|

G|---------5h7-----------|-------|
D|---------------------0-|-------|
A|-0--5h7-0---0---5h7-0--|--3--5-|
E|---5----------5--------|-------|

G|---------5h7-----------|-------5h7-------------|
D|---------------------0-|--------------------0--|
A|-0--5h7-0---0---5h7-0--|-0--5h7----0--5h7-0----|x2
E|---5----------5--------|---5---------5---------|

G|---------5h7-----------|-------|
D|---------------------0-|-------|
A|-0--5h7-0---0---5h7-0--|--3--5-|
E|---5----------5--------|-------|

     (fade out)
*********************************

h hammer on
p pull off
\ slide up
/ slide down

**********************************
ⓘ Bass guitar tab for 'Della Brown' by Queensrÿche, a heavy metal band formed in 1981 from Washington, USA. Queensrÿche is known for their reflective metal music.

Almost there ...

Sign in to get your own page with links to favourite songs and more. You are just one click away...

Login with Facebook Login with Google