Log in

One click and you are in

Login with Facebook Login with Google

Why sign up and log in

Guitar Tabs Explorer
Queens Of The Stone Age bass tabs for The way you used to do

The Way You Used To Do bass tab by Queens Of The Stone Age

Queens Of The Stone Age bass tabs for The way you used to do

Bass tabs

5-string tuning, BEADG

 (Bass enters at 00:48)

G|---------------------------------|
D|---------------------------------|
A|-17\(5)--------------------------|
E|---------------------------------|
B|---------------------------------|

G|---------------------------------|-------------------------------------|
D|---------------------------------|-------------------------------------|
A|---------------------------------|---------------------------10-10--10-|
E|-3---3-------3-------3-------3---|-----3-------3-------3---------------|
B|---------------------------------|-------------------------------------|

G|---------------------------------|-------------------------------------|
D|---------------------------------|-------------------------------------|
A|-10\-----------------------------|---------------------------10-10--10-|
E|-----3-------3-------3-------3---|-----3-------3-------3---------------|
B|---------------------------------|-------------------------------------|

G|---------------------------------|------------------------------------|
D|---------------------------------|------------------------------------|
A|-10\-----------------------------|------------------------------------|
E|-----3-------3-------3-------3---|-----3-------3----------------------|
B|---------------------------------|------------------------------------|

G|------------------------------|------------------------------|
D|------------------------------|------------------------------|
A|------------------------------|------------------------------|
E|-6-5-6-3---------3----------3-|-6-5-6-3---------3----------3-|
B|------------------------------|------------------------------|

G|------------------------------|------------------------------|
D|------------------------------|------------------------------|
A|------------------------------|------------------------------|
E|-6-5-6-3---------3----------3-|-----3-------3-3-3------------|
B|------------------------------|------------------------------|

G|--------------------------------|--------------------------------|
D|--------------------------------|--------------------------------|
A|-13\---------10------10------10-|-13\---------10------10------10-|
E|--------------------------------|--------------------------------|
B|--------------------------------|--------------------------------|

G|--------------------------------|--------------------------------|
D|--------------------------------|--------------------------------|
A|-13\---------10------10---------|--------------------------------|
E|--------------------------------|--------------------------------|
B|--------------------------------|--------------------------------|

G|------------------------------|------------------------------|
D|------------------------------|------------------------------|
A|------------------------------|------------------------------|
E|-6-5-6-3---------3----------3-|-6-5-6-3---------3----------3-|
B|------------------------------|------------------------------|

G|------------------------------|------------------------------|
D|------------------------------|------------------------------|
A|------------------------------|------------------------------|
E|-6-5-6-3---------3----------3-|-----3-------3-3-3------------|
B|------------------------------|------------------------------|


G|------------------------------|------------------------------|
D|------------------------------|------------------------------|
A|------------------------------|------------------------------|
E|-6-5-6-3---------3----------3-|-6-5-6-3---------3----------3-|
B|------------------------------|------------------------------|

G|------------------------------|------------------------------|
D|------------------------------|------------------------------|
A|------------------------------|------------------------------|
E|-6-5-6-3---------3----------3-|-----3-------3-3-3------------|
B|------------------------------|------------------------------|

G|------------------------------|------------------------------|
D|------------------------------|------------------------------|
A|------------------------------|------------------------------|
E|-6-5-6-3---------3----------3-|-6-5-6-3---------3----------3-|
B|------------------------------|------------------------------|

G|------------------------------|------------------------------|
D|------------------------------|------------------------------|
A|------------------------------|--------------------------5-4-|
E|-6-5-6-3---------3----------3-|-----3-------3-3-3------------|
B|------------------------------|------------------------------|


G|-----------------------------------|----------------------5----------|
D|-----------------------------------|------------------4-7------7h8p7-|
A|-3-----------3/--8------------8\---|-5----5---0-5-0-5----------------|
E|-----------3---------------8-------|---------------------------------|
B|-----------------------------------|---------------------------------|

G|-----------------------------------|---------------------------------|
D|---------------------5-------------|---------------------------------|
A|-------------------------------5-4-|-3-----------3---3-----------3---|
E|-----3-----3-3-3---------3-3-3-----|-----------3---3-----------3---3-|
B|-----------------------------------|---------------------------------|

G|-----------------------------------|----------------------5----------|
D|-----------------------------------|------------------4-7------3-3-4-|
A|-3-----------3/--8------------8\---|-5----5---0-5-0-5----------------|
E|-----------3---------------8-------|---------------------------------|
B|-----------------------------------|---------------------------------|

G|-----------------------------------|---------------------------------|
D|-5-------------------5-------------|---------------------------------|
A|-------------------------------5-4-|-3-----------3---3-----------3---|
E|-----3-----3-3-3---------3-3-3-----|-----------3---3-----------3---3-|
B|-----------------------------------|---------------------------------|

G|-----------------------------------|-------------5-6-7---------------|
D|-----------------------------------|---4-5-7-5-7---------------------|
A|-3------------3---3------------3-4-|-5-------------------------------|
E|------------3---3------------3-----|---------------------------------|
B|-----------------------------------|---------------------------------|


G|------------------------------|------------------------------|
D|------------------------------|------------------------------|
A|------------------------------|------------------------------|
E|-6-5-6-3---------3----------3-|-6-5-6-3---------3----------3-|
B|------------------------------|------------------------------|

G|------------------------------|------------------------------|
D|------------------------------|------------------------------|
A|------------------------------|------------------------------|
E|-6-5-6-3---------3----------3-|-----3-------3-3-3----------3-|
B|------------------------------|------------------------------|

G|------------------------------|------------------------------|
D|------------------------------|------------------------------|
A|------------------------------|------------------------------|
E|-6-5-6-5---------3----------3-|-6-5-6-3---------3----------3-|
B|------------------------------|------------------------------|

G|------------------------------|------------------------------|
D|------------------------------|------------------------------|
A|------------------------------|------------------------------|
E|-6-5-6-3---------3----------3-|-6---5-6---3------------------|
B|------------------------------|------------------------------|


G|----------------------------------------------|-----------------------------------------------|
D|----------------------------------------------|-----------------------------------------12----|
A|--10----10-10--10-10---10---10---10---10-10---|--10----10-10--10-10---10---10---10---10----13-|
E|----------------------------------------------|-----------------------------------------------|
B|----------------------------------------------|-----------------------------------------------| x2

G|-----------------------------------------------|-----------------------------------------------|
D|-----------------------------------------12----|-----------------------------------------12----|
A|--10----10-10--10-10---10---10---10---10----13-|--10----10-10--10-10---10---10---10---10----13-|
E|-----------------------------------------------|-----------------------------------------------|
B|----------------------------------------------|-----------------------------------------------|

G|-----------------------------------------------|-----------------------------------------------------------|
D|-----------------------------------------12----|-----12--------12--------12---------12--------17-17--17-17-|
A|--10----10-10--10-10---10---10---10---10----13-|-10-----13-10-----13-10-----13-10------10/-----------------|
E|-----------------------------------------------|-----------------------------------------------------------|
B|----------------------------------------------|-----------------------------------------------|

 (bass enters at 2:33)

G|------------------------------|------------------------------|
D|------------------------------|------------------------------|
A|------------------------------|------------------------------|
E|-3-5-6-3---------3----------3-|-6-5-6-3---------3----------3-|
B|------------------------------|------------------------------|

G|------------------------------|------------------------------|
D|------------------------------|------------------------------|
A|------------------------------|------------------------------|
E|-3-5-6-3---------3----------3-|-----3-------3-3-3----------3-|
B|------------------------------|------------------------------|

G|------------------------------|------------------------------|
D|------------------------------|---------------10--8----------|
A|------------------------------|----------------------10--8\--|
E|-3-3-------------3-3----------|-3-3--------------------------|
B|------------------------------|------------------------------|

G|------------------------------|------------------------------| |
D|------------------------------|------------------------------| |
A|------------------------------|------------------------------| |
E|-6-5-6-3---------3----------3-|-6-5-6-3---------3----------3-| |
B|------------------------------|------------------------------| \ x2
								 /
G|------------------------------|------------------------------| |
D|------------------------------|------------------------------| |
A|------------------------------|------------------------------| |
E|-6-5-6-3---------3----------3-|-----3-------3-3-3----------3-| |
B|------------------------------|------------------------------| |

G|------------------------------|----------------------|
D|------------------------------|----------------------|
A|------------------------------|------------------5-4-|
E|-6-5-6-3---------3----------3-|-6-5-6-3--------------|
B|------------------------------|----------------------|


G|-----------------------------------|-----------------------5---------|
D|-----------------------------------|-------------------4-7---8p7-8p7-|
A|-3-----------3/--8------------8\---|-5-----5---0-5-0-5---------------|
E|-----------3---------------8-------|---------------------------------|
B|-----------------------------------|---------------------------------|

G|-----------------------------------|---------------------------------|
D|---------------------5-------------|---------------------------------|
A|-------------------------------5-4-|-3-----------3---3-----------3---|
E|-----3-----3-3-3---------3-3-3-----|-----------3---3-----------3---3-|
B|-----------------------------------|---------------------------------|
G|-----------------------------------|----------------------------------------------------|
D|-----------------------------------|-12-12---10----12-12---10----12-12-10---------------|
A|-3-----------3/--8------------8/---|------------12------------12----------12-13-12-10-8-|
E|-----------3---------------8-------|----------------------------------------------------|
B|----------------------------------------------|-----------------------------------------------|

G|-----------------------------------|---------------------------------|
D|---------------------5-------------|---------------------------------|
A|-------------------------------5-4-|-3-----------3---3-----------3---|
E|-----3-----3-3-3---------3-3-3-----|-----------3---3-----------3---3-|
B|-----------------------------------|---------------------------------|

G|-----------------------------------|---------------------------------|
D|-----------------------------------|---------------------------------|
A|-3------------3---3------------3-4-|---------------------------------|
E|------------3---3------------3-----|---------------------------------|
B|-----------------------------------|-3~--------------------------3---|


G|-------------------------------|-------------------------------|
D|-------------------------------|-------------------------------|
A|---------------------10-10--10-|-10\---------------------------|
E|-5\----------------------------|-------------------------------|
B|-------------------------------|-------------------------------| x2

G|-------------------------------|-------------------------------| |
D|-------------------------------|-------------------------------| |
A|-13-12-13-10-------10-------10-|-13-12-13-10-------10-------10-| |
E|-------------------------------|-------------------------------| |
B|-------------------------------|-------------------------------| \ x2
 								  /
G|-------------------------------|-------------------------------| |
D|-------------------------------|-------------------------------| |
A|-13-12-13-10-------10-------10-|-------10-----10-10-10------10-| |
E|-------------------------------|-------------------------------| |
B|-------------------------------|-------------------------------| |

G|----------------------------------|
D|-------------------------10p8---8-|
A|-10----17\---10----17\--------8---|
E|----------------------------------|
B|----------------------------------| x4

G|----------------------------|--------------------|
D|----10h12----10h12----10h12-|----12p10-10p8---8--|
A|-10-------10-------10-------|-10------------8----|
E|----------------------------|--------------------|
B|----------------------------|--------------------| x4

************************************

| (n) Ghost note
| h Hammer-on
| p Pull-off
| \ Slide down
| / Slide up
| ~ Let ring

************************************

Almost there ...

Sign in to get your own page with links to favourite songs and more. You are just one click away...

Login with Facebook Login with Google