Guitar Tabs Explorer
Queen Zee bass tabs for Idle crown

Idle Crown bass tab by Queen Zee

Queen Zee bass tabs for Idle crown

Bass tabs

Tuning: Standard


SHORT DRUM ROLL
INTRO
G |-----------------|-----------------|-----------------|-----------------|
D |-----------------|-----------------|-----------------|-----------------|
A |-5-5-5-5-5-5-5-5-|-5-5-5-5-5-5-5-3-|-----------------|-----------------|
E |-----------------|-----------------|-6-6-6-6-6-6-6-6-|-6-6-6-6-6-6-6-5-|

G |-----------------|-----------------|-----------------|-----------------|
D |-----------------|---------------3-|-5-5-5-5-5-5-5-5-|-5-5-5-5-5-5-5---|
A |-3-3-3-3-3-3-3-3-|-3-3-3-3-3-3-3---|-----------------|---------------3-|
E |-----------------|-----------------|-----------------|-----------------|


VERSE
G |-----------------|-----------------|-----------------|-----------------|
D |-----------------|-----------------|-----------------|-----------------|
A |-5-5-5-5-5-5-5-5-|-5-5-5-5-5-5-5-3-|-----------------|-----------------|
E |-----------------|-----------------|-6-6-6-6-6-6-6-6-|-6-6-6-6-6-6-6-5-|

G |-----------------|-----------------|-----------------|-----------------|
D |-----------------|---------------3-|-5-5-5-5-5-5-5-5-|-5-5-5-5-5-5-5---|
A |-3-3-3-3-3-3-3-3-|-3-3-3-3-3-3-3---|-----------------|---------------3-|
E |-----------------|-----------------|-----------------|-----------------|

G |-----------------|-----------------|-----------------|-----------------|
D |-----------------|-----------------|-----------------|-----------------|
A |-5-5-5-5-5-5-5-5-|-5-5-5-5-5-5-5-3-|-----------------|-----------------|
E |-----------------|-----------------|-6-6-6-6-6-6-6-6-|-6-6-6-6-6-6-6-5-|

G |-----------------|-----------------|-----------------|-----------------|
D |-----------------|---------------3-|-5-5-5-5-5-5-5-5-|-5-5-5-5-5-5-5-3-|
A |-3-3-3-3-3-3-3-3-|-3-3-3-3-3-3-3---|-----------------|-----------------|
E |-----------------|-----------------|-----------------|-----------------|
BRIDGE
G |-----------------|----------------------|
D |-----------------|----------------------|
A |-3---5---3---5---|-3---5---3---5---5--5-|
E |-----------------|----------------------|


CHORUS
G |-----------------|-----------------|-----------------|-----------------|
D |-----------------|-----------------|-----------------|-----------------|
A |-5-5-5-5-5-5-5-5-|-5-5-5-5-5-5-5-3-|-----------------|-----------------|
E |-----------------|-----------------|-6-6-6-6-6-6-6-6-|-6-6-6-6-6-6-6-5-|

G |-----------------|-----------------|-----------------|-----------------|
D |-----------------|-----------------|-3-3-3-3-3-3-3-3-|-5-5-7-7-5-5-3-3-|
A |-----------------|-----------------|-----------------|-----------------|
E |-3-3-3-3-3-3-3-3-|-3-3-3-3-3-3-3-3-|-----------------|-----------------|

G |-----------------|-----------------|-----------------|-----------------|
D |-----------------|-----------------|-----------------|-----------------|
A |-5-5-5-5-5-5-5-5-|-5-5-5-5-5-5-5-3-|-----------------|-----------------|
E |-----------------|-----------------|-6-6-6-6-6-6-6-6-|-6-6-6-6-6-6-6-5-|

G |-----------------|-----------------|-----------------|-----------------|
D |-----------------|-----------------|-3-3-3-3-3-3-3-3-|-5-5-7-7-5-5-3-3-|
A |-----------------|-----------------|-----------------|-----------------|
E |-3-3-3-3-3-3-3-3-|-3-3-3-3-3-3-3-3-|-----------------|-----------------|

REPEAT VERSE, CHORUS ND BRIDGE


VERSE 3 This verse starts quiet and builds up to solo
G |-----------------|-----------------|-----------------|-----------------|
D |-----------------|-----------------|-----------------|-----------------|
A |-5-5-5-5-5-5-5-5-|-5-5-5-5-5-5-5-3-|-----------------|-----------------|
E |-----------------|-----------------|-6-6-6-6-6-6-6-6-|-6-6-6-6-6-6-6-5-|

G |-----------------|-----------------|-----------------|-----------------|
D |-----------------|---------------3-|-5-5-5-5-5-5-5-5-|-5-5-5-5-5-5-5---|
A |-3-3-3-3-3-3-3-3-|-3-3-3-3-3-3-3---|-----------------|---------------3-|
E |-----------------|-----------------|-----------------|-----------------|

G |-----------------|-----------------|-----------------|-----------------|
D |-----------------|-----------------|-----------------|-----------------|
A |-5-5-5-5-5-5-5-5-|-5-5-5-5-5-5-5-3-|-----------------|-----------------|
E |-----------------|-----------------|-6-6-6-6-6-6-6-6-|-6-6-6-6-6-6-6-5-|

G |-----------------|-----------------|-----------------|-----------------|
D |-----------------|---------------3-|-5-5-5-5-5-5-5-5-|-5-5-5-5-5-5-5-3-|
A |-3-3-3-3-3-3-3-3-|-3-3-3-3-3-3-3---|-----------------|-----------------|
E |-----------------|-----------------|-----------------|-----------------|


SOLO
G |-----------------|-----------------|-----------------|-----------------|
D |-----------------|-----------------|-----------------|-----------------|
A |-5-5-5-5-5-5-5-5-|-5-5-5-5-5-5-5-3-|-----------------|-----------------|
E |-----------------|-----------------|-6-6-6-6-6-6-6-6-|-6-6-6-6-6-6-6-5-|

G |-----------------|-----------------|-----------------|-----------------|
D |-----------------|-----------------|-3-3-3-3-3-3-3-3-|-5-5-7-7-5-5-3-3-|
A |-----------------|-----------------|-----------------|-----------------|
E |-3-3-3-3-3-3-3-3-|-3-3-3-3-3-3-3-3-|-----------------|-----------------|


CHORUS
G |-----------------|-----------------|-----------------|-----------------|
D |-----------------|-----------------|-----------------|-----------------|
A |-5-5-5-5-5-5-5-5-|-5-5-5-5-5-5-5-3-|-----------------|-----------------|
E |-----------------|-----------------|-6-6-6-6-6-6-6-6-|-6-6-6-6-6-6-6-5-|

G |-----------------|-----------------|-----------------|-----------------|
D |-----------------|-----------------|-3-3-3-3-3-3-3-3-|-5-5-7-7-5-5-3-3-|
A |-----------------|-----------------|-----------------|-----------------|
E |-3-3-3-3-3-3-3-3-|-3-3-3-3-3-3-3-3-|-----------------|-----------------|

G |-----------------|-----------------|-----------------|-----------------|
D |-----------------|-----------------|-----------------|-----------------|
A |-5-5-5-5-5-5-5-5-|-5-5-5-5-5-5-5-3-|-----------------|-----------------|
E |-----------------|-----------------|-6-6-6-6-6-6-6-6-|-6-6-6-6-6-6-6-5-|

G |-----------------|-----------------|-----------------|-----------------|
D |-----------------|-----------------|-3-3-3-3-3-3-3-3-|-5-5-7-7-5-5-3-3-|
A |-----------------|-----------------|-----------------|-----------------|
E |-3-3-3-3-3-3-3-3-|-3-3-3-3-3-3-3-3-|-----------------|-----------------|


ENDING
G |-----------------|-------------------------|
D |-----------------|-------------------------|
A |-3---5---3---5---|-3---5---3---5---5-5---5-|
E |-----------------|-------------------------|