Log in

One click and you are in

Login with Facebook Login with Google

Why sign up and log in

Guitar Tabs Explorer
Queen Zee bass tabs for Boy

Bass tabs

Tuning: Standard


INTRO
G |-----------------|-----------------|-----------------|-----------------|
D |---REST----------|---REST----------|---REST----------|---REST----------|
A |-----------------|-----------------|-----------------|-----------------|
E |-----------------|-----------------|-----------------|-----------------|

G |-----------------|-----------------|-----------------|-----------------|
D |-----------------|-----------------|-----------------|-----------------|
A |-4-4-------------|-----------------|-4-4-------------|-----------------|
E |-----0---3-3-3-3-|-3-3-3-3-3-3-3-3-|-----0---3-3-3-3-|-3-3-3-3-3-3-3-3-|

G |-----------------|-----------------|-----------------|-----------------|
D |-----------------|-----------------|-----------------|-----------------|
A |-4-4-------------|-----------------|-4-4-----1-1-1-1-|-1-1-1-1-1-1-1-1-|
E |-----0---3-3-3-3-|-3-3-3-3-3-3-3-3-|-----0-----------|-----------------|

G |-----------------|-----------------|-----------------|--------------------|
D |-----------------|-----------------|-35--------------|-5--3---------------|
A |-4-4-------------|-----------------|-----------------|------5-3-----------|
E |-----0---3-------|-----------------|-----3-----------|----------6-5-3-1-3-|


VERSE
G |-----------------|-----------------|-----------------|-----------------|
D |-----------------|-----------------|-----------------|-----------------|
A |-----------------|-----------------|-1-1-1---1-1-1---|-1-1-1-1---1-1-1-|
E |-3-3-3---3-3-3---|-3-3-3-3---3-3-3-|-----------------|-----------------|

G |-----------------|-----------------|-----------------|-----------------|
D |-----------------|-----------------|-----------------|-----------------|
A |-----------------|-------3---3-3-3-|-1-1-1---1-1-1---|-1-1-1-1---1-1-1-|
E |-1-1-1---1-1-1---|-1-1-1-----------|-----------------|-----------------|

  1 & 2 & 3 & 4 &  1 & 2 & 3 & 4 &  1 & 2 & 3 & 4 &  1 & 2 & 3 & 4 &
G |-----------------|-----------------|-----------------|-----------------|
D |-----------------|-----------------|-----------------|-----------------|
A |-----------------|-----------------|-1-1-1---1-1-1---|-1-1-1-1---1-1-1-|
E |-3-3-3---3-3-3---|-3-3-3-3---3-3-3-|-----------------|-----------------|

G |-----------------|-----------------|-----------------|-----------------|
D |-----------------|-----------------|-----------------|-----------------|
A |-----------------|-------3---3-3-3-|-1-1-1---1-1-1---|-1-1-1-1---1-1-1-|
E |-1-1-1---1-1-1---|-1-1-1-----------|-----------------|-----------------|
CHORUS
G |-----------------|-----------------|-----------------|-----------------|
D |-----------------|-----------------|-----------------|-----------------|
A |-4-4-------------|-----------------|-4-4-------------|-----------------|
E |-----0---3-3-3-3-|-3-3-3-3-3-3-3-3-|-----0---3-3-3-3-|-3-3-3-3-3-3-3-3-|

G |-----------------|-----------------|-----------------|-----------------|
D |-----------------|-----------------|-----------------|-----------------|
A |-4-4-------------|-----------------|-4-4-----1-1-1-1-|-1-1-1-1-1-1-1-1-|
E |-----0---3-3-3-3-|-3-3-3-3-3-3-3-3-|-----0-----------|-----------------|

FILL
G |-----------------|-----------------|-----------------|-----------------|
D |-----------------|-----------------|-----------------|-----------------|
A |-4-4-------------|-----------------|-4-4-------------|-----------------|
E |-----0---3-3-3-3-|-3-3-3-3-3-3-3-3-|-----0---3-3-3-3-|-3-3-3-3-3-3-3-3-|

G |-----------------|-----------------|-----------------|-----------------|
D |-----------------|-----------------|-----------------|-----------------|
A |-4-4-------------|-----------------|-4-4-----1-1-1-1-|-1-1-1-1-1-1-1-1-|
E |-----0---3-3-3-3-|-3-3-3-3-3-3-3-3-|-----0-----------|-----------------|

G |-----------------|-----------------|-----------------|--------------------|
D |-----------------|-----------------|-35--------------|-5--3---------------|
A |-4-4-------------|-----------------|-----------------|------5-3-----------|
E |-----0---3-------|-----------------|-----3-----------|----------6-5-3-1-3-|

REPEAT VERSE
REPEAT CHORUS

? Not sure about this bit AT ALL routes are right but the rest is hog wash
G |-----------------|-----------------|-----------------|-----------------|
D |-----------------|-----------------|-----------------|-----------------|
A |-----------------|-----------------|-----------------|-----------------|
E |-3-3-3-3---3-3-3-|-3-3-3-3---3-3-3-|-3-3-3-3---3-3-3-|-3-3-3-3---3-3-3

G |-----------------|-----------------|-----------------|-----------------|
D |-----------------|-----------------|-----------------|-----------------|
A |-----------------|-----------------|-----------------|-----------------|
E |-3-3-3-3-3-3-3-3-|-3-3-3-3-3-3-3-3-|-3-3-3-3-3-3-3-3-|-3-3-3-3-3-3-3-3-|X3

G |-----------------|-----------------|-----------------|-----------------|
D |-----------------|-----------------|-----------------|-------0---------|
A |-----------------|-----------------|-----------------|-0-1-3---3---1---|
E |-3-3-3-3-3-3-3-3-|-3-3-3-3-3-3-3-3-|-3-3-3-3-3-3-3-3-|-----------------|

G |-----------------|-----------------|-----------------|-----------------|
D |-----------------|-----------------|-----------------|-----------------|
A |-----------------|-----------------|-----------------|-----------------|
E |-3-3-3-3-3-3-3-3-|-3-3-3-3-3-3-3-3-|-3-3-3-3-3-3-3-3-|-3-3-3-3-3-3-3-3-|X5

G |-----------------|-----------------|-----------------|-----------------|
D |-----------------|-----------------|-5-5-3-3---------|-----------------|
A |-----------------|-----------------|---------5-5-3-3-|-----------------|
E |-3-3-3-3-3-3-3-3-|-3-3-3-3-3-3-3-3-|-----------------|-6-6-5-5-3-3-1-1-|

G |-----------------|-----------------|-----------------|-----------------|
D |-----------------|-----------------|-----------------|-----------------|
A |-----------------|-----------------|-----------------|-----------------|
E |-3-3-3-3-3-3-3-3-|-3-3-3-3-3-3-3-3-|-3-3-3-3-3-3-3-3-|-3-3-3-3-3-3-3-3-|X3

G |-----------------|-----------------|-----3-3-5-3-----|---------10--10--10-12-10-8|
D |-----------------|-----------------|-5-5---------5---|-------10--10--10----------|
A |-----------------|-----------------|-----------------|-8-8-8---------------------|
E |-3-3-3-3-3-3-3-3-|-3-3-3-3-3-3-3-3-|-----------------|---------------------------|

G |-------------------------|-------------------------|
D |-10-10-10-10-10-10-10-10-|-10-10-10-10-10-10-10-10-|
A |-------------------------|-------------------------|
E |-------------------------|-------------------------|

LAST BIT
G |-----------------|-----------------|-----------------|-----------------|
D |-----------------|-----------------|-----------------|-----------------|
A |-----------------|-----------------|-----------------|-----------------|
E |-3---3-3--3------|-3---3-3--3------|-3---3---3-------|-3---3-3--3------|

G |-----------------|-----------------|-----------------|-----------------|
D |-----------------|-----------------|-----------------|-----------------|
A |-----------------|-----------------|-----------------|-----------------|
E |-3---3-3--3------|-3---3-3--3------|-3---3---3-------|-3---3-3--3------|

Almost there ...

Sign in to get your own page with links to favourite songs and more. You are just one click away...

Login with Facebook Login with Google