Log in

One click and you are in

Login with Facebook Login with Google

Why sign up and log in

Guitar Tabs Explorer
Queen guitar tabs for Gimme some lovin

Guitar tabs

repeat
e:----------------|
B:----------------|
G:-9-9-9-9-9-9----|
D:-9-9-9-9-9-9----|
A:-7-7-7-7-7-7--7-|
E:--------------0-|


   verse
People keep on talking
Bogeying around
Take you to me party
Sitting on the town
Yeah, hey
                x8
e:----------------|
B:----------------|
G:-9-9-9-9-9-9----|
D:-9-9-9-9-9-9----|
A:-7-7-7-7-7-7--7-|
E:--------------0-|


e:------------------|
B:------------------|
G:-9-9-9-9-9-9--9---|
D:-9-9-9-9-9-9--9---|
A:-7-7-7-7-7-7--7---|
E:--------------0---|


hillo son mex

tabbed in 2001

retabbed 2020



People keep on talking

Bogeying around

Take you to me party

Sitting on the town

Yeah, hey

Almost there ...

Sign in to get your own page with links to favourite songs and more. You are just one click away...

Login with Facebook Login with Google