Log in

One click and you are in

Login with Facebook Login with Google

Why sign up and log in

Guitar Tabs Explorer
Queen bass tabs for All dead all dead

Bass tabs

Key: F

Difficulty: Novice

Part 1: 0:52
G|-------------------------|--------------------------|
D|-------------------------|--------------------------|
A|1-3-5-7-8-10-12-8---3----|---4-5-3-1~---------------|
E|------------------6---1~-|-1------------3-1~----1-1~|

Part 2: 1:30
G|----------------------------|-----------|
D|----------------------3-----|-----------|
A|1-3-5-7-8-10-12-8---3--3----|---4-5-3-1~|
E|------------------6-----51--|-1---------|

Part 3: 1:46
G|-------------------------------------|
D|-------------------------------------|
A|---------------------------5-5-5*8*8~|
E|10\5-5-5-5-5-5-5-5-5-5-5-5-----------|

Part 4: 2:30
G|----------------------------|---------------------------|
D|----------------------3-----|-----------------------3---|
A|7-8----10-12----8---3--3----|-1-3-5-7-8-10-12-8---3--3--|
E|------------------6-----51--|-------------------6-----51|

G|--------------------------|
D|3-567---------------------|
A|------5-3-1~---3----------|
E|-----------------1~---1-1~|

***********************************

| *  Mute
| ~  Let Ring
| \  Slide Down

***********************************

Almost there ...

Sign in to get your own page with links to favourite songs and more. You are just one click away...

Login with Facebook Login with Google