Log in

One click and you are in

Login with Facebook Login with Google

Why sign up and log in

Guitar Tabs Explorer
Suzi Quatro bass tabs for Can the can

Bass tabs

-------------------------------------------------------------------------------
               Can the Can – Suzuki Quatro
-------------------------------------------------------------------------------

Tabbed By :Punkypirate
Tuning:Standerd

 Intro:(drums play first then bass comes in)
G|-------------------|-----------------|-----------------|-------------------|
D|-------------------|-----------------|-----------------|-------------------|
A|-------------------|-----------------|-----------------|-------------------|
E|---3-3-3-3-3-3-3-3-|-3-3-3-3-3-3-3-3-|-3-3-3-3-3-3-3-3-|-3-3-3-3-3-3-3-3---|

 Verse: (repeat play till end of verse)
G|-------------------|-----------------|-----------------|-------------------|
D|-------------------|-----------------|-----------------|-------------------|
A|-------------------|-----------------|-----------------|-------------------|
E|---3-3-3-3-3-3-3-3-|-3-3-3-3-3-3-3-3-|-1-1-1-1-1-1-1-1-|-1-1-1-1-1-1-1-1---|

 Pre-chorus:
G|-------------------|-----------------|-----------------|-------------------|
D|-------------------|-----------------|-----------------|-------------------|
A|-------------------|-----------------|-----------------|-------------------|
E|---3-3-3-3-3-3-3-3-|-5-5-5-5-5-5-5-5-|-8-8-8-8-8-8-8-8-|-7-7-7-7-7-7-7-7---|

G|---------------|-----------------------------------------------------------|
D|---------------|-----------------------------------------------------------|
A|---------------|-----------------------------------------------------------|
E|-7-7-7-7-7-7-7-|-7-7-7-7-7-7-7-7-------------------------------------------|

 Chorus:
G|-------------------|-----------------|-----------------|-------------------|
D|-------------------|-----------------|-----------------|-------------------|
A|-------------------|-----------------|-----------------|-------------------|
E|---3-3-3-3-1-1-1-1-|-3-3-3-3-1-1-1-1-|-3-3-3-3-1-1-1-1-|-3-3-3-3-1-1-1-1---|

 repeat then end chorus with:
G|---------------------------------------------------------------------------|
D|---------------------------------------------------------------------------|
A|---------------------------------------------------------------------------|
E|-3-3-3-3-3-3-3-3-----------------------------------------------------------|

 Bridge: play 3 times                    end with:-
G|---------------------------------------------|-----------------------------|
D|---5-5-3-------------------------------------|-----------------------------|
A|---------5-3---------------------------------|-----------------------------|
E|-------------5-3-1---------------------------|---3-3-3-3-3-3-3-3-----------|


Then go back to:-

Verse:

Pre Chorus:

Chorus:

Verse:

Pre chorus:

Bridge:

Chorus:
ⓘ Bass guitar tab for 'Can The Can' by Suzi Quatro, a female rock artist from Detroit, USA. Suzi Quatro was born in 1950. Suzi Quatro is known for her energetic rock/pop music.

Almost there ...

Sign in to get your own page with links to favourite songs and more. You are just one click away...

Login with Facebook Login with Google