Log in

One click and you are in

Login with Facebook Login with Google

Why sign up and log in

Guitar Tabs Explorer
Quasi tabs for Invisible star

Tabs

Quasi - Invisible Star

Chords:
A chord diagramE MajorE      022100
F#*    202200
E/G#   422100
A chord diagramAsus2Asus2  X02200
E7/G#  420100
A chord diagramB7B7     X21200
VERSE
  A chord diagramE MajorE           F#*         E/G#        F#*
|----------------------------------------------------|
|----------0-----------0-----------0--------0--------|
|-------1-----------2-----------1--------------2-----|
|-----2-----------2-----------2-----------2------2---|
|---2-----------0-----------2-----------0------------|
|-0-----------2-----------4-----------2--------------|


CHORUS
  E7/G#            A chord diagramAsus2Asus2     /G#      F#*
|----------------------------------------------------|
|---------0-------------0---------0--------0---------|
|-------1---1-------------2---------2--------2-------|
|-----0-------0------2---------2--------2------------|
|---2-----------2--0------------------------------0--|
|-4--------------------------4--------2---------4----|
 A chord diagramB7B7
|-----------------0----|
|-------0-----------4--|
|-----2--------2-------|
|---1--------1---------|
|-2--------2-----------|
|----------------------|

LYRICS
Leave it behind
have no fear, no mind
now there you are
an invisible star

feel what you see
am I not yr tree?

Carried along
through a tunnel of green
float through the night
on a river of light

feel what you hear
am I not still near?
ⓘ Guitar tab for 'Invisible Star' by, formed in 2000

Almost there ...

Sign in to get your own page with links to favourite songs and more. You are just one click away...

Login with Facebook Login with Google