Guitar Tabs Explorer
Quarterflash bass tabs for Take me to heart

Take Me To Heart bass tab


4 / 5 [1 vote]

Take Me To Heart bass tab by Quarterflash

Bass tabs

Print
Difficulty: 0

Album: Take Another Picture (1983)
Bassist: Rich Gooch

Standard tuning (EADG)

LEGEND:
r = rest
() = sustained note
h = hammer on
/ = slide up
\ = slide down
s = 16th note (appears above bar)


INTRO:
                 ( x2 )
    s s s s s         s s s s s s s      s s s s
G |-----------------|-----------------||-----------------|---2-------3-----|
D |-----------------|-----------------||-----------------|-----------------|
A |-----------2-r-0-|-0r0r0r0r0r0r0r--||-----------2-r-0-|(0)--0-1-----1/2-|
E |-3r3r3r3r3-------|---------------2-||-3r3r3r3r3-------|-----------------|
    1 & 2 & 3 & 4 &   1 & 2 & 3 & 4 &    1 & 2 & 3 & 4 &   1 & 2 & 3 & 4 &

                  ss
G |-----------------|-----------------|-----------------|-----------------|
D |-------5--------h|-5---r-5---------|-5----/12------\-|-5---r-5---------|
A |---------------57|-----------------|-----------------|-------------5-\-|
E |-3---------------|-----------------|-----------------|-----------------|
    1 & 2 & 3 & 4 &   1 & 2 & 3 & 4 &   1 & 2 & 3 & 4 &   1 & 2 & 3 & 4 &


VERSE 1:
                 ( x3 )
    s s s s             s s s s s s      s s s s
G |-----------------|-----------------||-----------------|---2-------3-----|
D |-----------------|-----------------||-----------------|-----------------|
A |-----------2-r-0-|-0r0r0r0r0r0r0r--||-----------2-r-0-|(0)--0-1-----1r1-|
E |-3r3r3r3r3-------|---------------2-||-3r3r3r3r3-------|-----------------|
    1 & 2 & 3 & 4 &   1 & 2 & 3 & 4 &    1 & 2 & 3 & 4 &   1 & 2 & 3 & 4 &


PRE-CHORUS:
    s s s s s s s     s s s s s s s     s s s s s s
G |-----------------|-----------------|-----------------|
D |-----------------|-----------------|---------------5-|
A |-2r2r2r2r2r2r2r2-|-0r0r0r0r0r0r0r0-|-----------------|
E |-----------------|-----------------|-3r3r3r3r3r3r3---|
    1 & 2 & 3 & 4 &   1 & 2 & 3 & 4 &   1 & 2 & 3 & 4 &

    s                                  <
G |-----------------|-----------------|-----------------|
D |-----------------|-----------------|-7-7-7-7-7-5-----|
A |-----------------|-----------------|-------------7-\-|
E |-3r--------------|-r---------------|-----------------|
    1 & 2 & 3 & 4 &   1 & 2 & 3 & 4 &   1 & 2 & 3 & 4 &


CHORUS 1:
                 ( x2 )
G |-----------------|-----------------||-----------------|-----------------|
D |-----------------|-----------------||-----------------|-----------------|
A |-2-2-2-----------|-----------0-0-0-||-2-2-2-----------|---------0-0-0-0-|
E |-------3-3-3-3-3-|-3-3-3-3-3-------||-------3-3-3-3-3-|-3-3-3-3---------|
    1 & 2 & 3 & 4 &   1 & 2 & 3 & 4 &    1 & 2 & 3 & 4 &   1 & 2 & 3 & 4 &

                  ss                                                s
G |-----------------|-----------------|-----------------|-----------------|
D |-------5--------h|-5---r-5---------|-5----/12------\-|-5---r-5---------|
A |---------------57|-----------------|-----------------|-----------5r5-\-|
E |-3---------------|-----------------|-----------------|-----------------|
    1 & 2 & 3 & 4 &   1 & 2 & 3 & 4 &   1 & 2 & 3 & 4 &   1 & 2 & 3 & 4 &


VERSE 2:
                 ( x3 )
    s s s s             s s s s s s      s s s s s                     s
G |-----------------|-----------------||-----------------|---2-------3-----|
D |-----------------|-----------------||-----------------|-----------------|
A |-----------2-r-0-|-0r0r0r0r0r0r0r--||-----------2-r-0-|(0)--0-1-----1r1-|
E |-3r3r3r3r3-------|---------------2-||-3r3r3r3r3r------|-----------------|
    1 & 2 & 3 & 4 &   1 & 2 & 3 & 4 &    1 & 2 & 3 & 4 &   1 & 2 & 3 & 4 &


PRE-CHORUS:
    s s s s s s s     s s s s s s s     s s s s s s
G |-----------------|-----------------|-----------------|
D |-----------------|-----------------|---------------5-|
A |-2r2r2r2r2r2r2r2-|-0r0r0r0r0r0r0r0-|-----------------|
E |-----------------|-----------------|-3r3r3r3r3r3r3---|
    1 & 2 & 3 & 4 &   1 & 2 & 3 & 4 &   1 & 2 & 3 & 4 &

    s                                  <
G |-----------------|-----------------|-----------------|
D |-----------------|-----------------|-7-7-7-7-5-4-----|
A |-----------------|-----------------|-------------7-5-|
E |-3r--------------|-r---------------|-----------------|
    1 & 2 & 3 & 4 &   1 & 2 & 3 & 4 &   1 & 2 & 3 & 4 &


CHORUS 2:
                 ( x2 )                                                  ss
G |-----------------|-----------------||-----------------|-----------------|
D |-----------------|-----------------||-----------------|----------------h|
A |-2-2-2-----------|-----------0-0-0-||-2-2-2-----------|---------0-0-0-57|
E |-------3-3-3-3-3-|-3-3-3-3-3-------||-------3-3-3-3-3-|-3-3-3-3---------|
    1 & 2 & 3 & 4 &   1 & 2 & 3 & 4 &    1 & 2 & 3 & 4 &   1 & 2 & 3 & 4 &


INTERLUDE:
                                          s
G |-----------------|-----------------|-----------------|-----------------|
D |-5---r-5---------|-----------------|-9---r-9-------\-|-----------------|
A |-----------------|---------------5/|-----------------|-2---r-2---------|
E |-----------------|-3---r-3---------|-----------------|-------------0-2-|
    1 & 2 & 3 & 4 &   1 & 2 & 3 & 4 &   1 & 2 & 3 & 4 &   1 & 2 & 3 & 4 &

G |-----------------|-----------------|-----------------|-----------------|
D |-----------------|-5---r-5---------|-----------------|----/7-7-7-5-4---|
A |-----------------|---------------5\|-0r0r0r0r0r0r0r0r|-0r0-----------0-|
E |-3---r-3---------|-----------------|-----------------|-----------------|
    1 & 2 & 3 & 4 &   1 & 2 & 3 & 4 &   1 & 2 & 3 & 4 &   1 & 2 & 3 & 4 &


SAX SOLO:
                 ( x3 )
    s s s s           s s s s s s s      s s s s
G |-----------------|-----------------||-----------------|---2-------3-----|
D |-----------------|-----------------||-----------------|-----------------|
A |-----------2-r-0-|-0r0r0r0r0r0r0r--||-----------2-r-0-|(0)--0-1-----1-1-|
E |-3r3r3r3r3-------|---------------2-||-3r3r3r3r3-------|-----------------|
    1 & 2 & 3 & 4 &   1 & 2 & 3 & 4 &    1 & 2 & 3 & 4 &   1 & 2 & 3 & 4 &

    s s s s s s s     s s s s s s s     s s s s s s s
G |-----------------|-----------------|-----------------|-----------------|
D |-----------------|-----------------|-----------------|-----------------|
A |-2r2r2r2r2r2r2r2-|-0r0r0r0r0r0r0r0-|-----------------|-----------------|
E |-----------------|-----------------|-3r3r3r3r3r3r3r3-|-5-5-5-5-5-5-5-5-|
    1 & 2 & 3 & 4 &   1 & 2 & 3 & 4 &   1 & 2 & 3 & 4 &   1 & 2 & 3 & 4 &


PRE-CHORUS:
    s                                  <
G |-----------------|-----------------|-----------------|-----------------|
D |-----------------|-----------------|-7-7-7-7-7-7-7-7-|-7-5-4-0---------|
A |-----------------|-----------------|-----------------|---------7-5-4-0-|
E |-5r--------------|-r---------------|-----------------|-----------------|
    1 & 2 & 3 & 4 &   1 & 2 & 3 & 4 &   1 & 2 & 3 & 4 &   1 & 2 & 3 & 4 &


CHORUS 3:
                 ( x3 )                               ( x2 )
G |-----------------|-----------------||-----------------|-----------------|
D |-----------------|-----------------||-----------------|-----------------|
A |-2-2-2-----------|-----------0-0-0-||-2-2-2-----------|---------0-0-0-0-|
E |-------3-3-3-3-3-|-3-3-3-3-3-------||-------3-3-3-3-3-|-3-3-3-3---------|
    1 & 2 & 3 & 4 &   1 & 2 & 3 & 4 &    1 & 2 & 3 & 4 &   1 & 2 & 3 & 4 &


OUTRO (Repeat to fade-out):
    s s s s s         s s s s s s s
G |-----------------|-----------------|
D |-----------------|-----------------|
A |-----------2-r-0-|-0r0r0r0r0r0r0r--|
E |-3r3r3r3r3-------|---------------2-|
    1 & 2 & 3 & 4 &   1 & 2 & 3 & 4 &

THE END

Comment this song and these bass tabs

Do you have corrections, comments on the bass tabs, thoughts about the song or a message to the author? Write them below.