Guitar Tabs Explorer
Charlie Puth guitar tabs for We dont talk anymore

We Don't Talk Anymore tab


3.7 / 5 [23 votes]

We Don't Talk Anymore tab by Charlie Puth

Guitar tabs

Print
Difficulty: Beginner

Artist : Charlie Puth
Song : We Don't Talk Anymore

Tuning: Standard
Key : C chord diagramCC#minor



[RIFF FOR THE ENTIRE SONG - Generally all palm muted]
   A chord diagramAA                                 B chord diagramBB
e|---------------------------------|---------------------------------|
B|---------------------------------|---------------------------------|
G|-----6-----6-----6-----6-----6---|-----8-----8-----8-----8-----8---|
D|---7---7-----7-----7-----7-----7-|---9---9-----9-----9-----9-----9-|
A|---------------------------------|---------------------------------|
E|-5-------5-----5-----5-----5-----|-7-------7-----7-----7-----7-----|

   C#m chord diagramC#mC#m                                     G#m chord diagramG#mG#m
e|---------------------------------------|---------------------------------|
B|---------------------------------------|---------------------------------|
G|------9------9------9------9------9----|-----4-----4-----4-----4-----4---|
D|---11---11-----11-----11-----11-----11-|---6---6-----6-----6-----6-----6-|
A|---------------------------------------|---------------------------------|
E|-9---------9------9------9------9------|-4-------4-----4-----4-----4-----|



[VARIATION 1]
[Occurs at end of intro]
   A chord diagramAA                                 B chord diagramBB
e|---------------------------------|---------------------------------|
B|---------------------------------|---------------------------------|
G|-----6-----6-----6-----6-----6---|-----8-----8-----8-----8-----8---|
D|---7---7-----7-----7-----7-----7-|---9---9-----9-----9-----9-----9-|
A|---------------------------------|---------------------------------|
E|-5-------5-----5-----5-----5-----|-7-------7-----7-----7-----7-----|

   C#m chord diagramC#mC#m
e|---------------------------------------|
B|---------------------------------------|
G|------9------9------9------9------9----|
D|---11---11-----11-----11-----11-----11-|
A|---------------------------------------|
E|-9---------9------9------9------9------|  x 2



[VARIATION 2]
[Occurs at end of all pre-choruses]
   A chord diagramAA                                 B chord diagramBB
e|---------------------------------|---------------------------------|
B|---------------------------------|---------------------------------|
G|-----6-----6-----6-----6-----6---|-----8-----8-----8-----8-----8---|
D|---7---7-----7-----7-----7-----7-|---9---9-----9-----9-----9-----9-|
A|---------------------------------|---------------------------------|
E|-5-------5-----5-----5-----5-----|-7-------7-----7-----7-----7-----|

   C#m chord diagramC#mC#m
e|---------------------------------------|---------------------------|
B|---------------------------------------|---------------------------|
G|------9------9------9------9------9----|------9------9-------------|
D|---11---11-----11-----11-----11-----11-|---11---11-----11----------|
A|---------------------------------------|---------------------------|
E|-9---------9------9------9------9------|-9---------9------9--------|

************************************

| /   slide up
| \   slide down
| h   hammer-on
| p   pull-off
| ~   vibrato
| +   harmonic
| x   Mute note
| b   Bend
| pb  Pre-bend
| br  Bend release
| pbr Pre-bend release
| brb Bend release bend

Other versions of We Don't Talk Anymore

We don't talk anymoreChords
We don't talk anymore (Ver. 2)Chords

Comment this song and these guitar tabs

Do you have corrections, comments on the guitar tabs, thoughts about the song or a message to the author? Write them below.