Log in

One click and you are in

Login with Facebook Login with Google

Why sign up and log in

Guitar Tabs Explorer
Charlie Puth bass tabs for We dont talk anymore

We Don't Talk Anymore bass tab by Charlie Puth

Charlie Puth bass tabs for We dont talk anymore

Bass tabs

Verse:
G|----------------|------------------|
D|----------------|------------------|
A|----------------|------------------|
E|-5---7---9---4--|-5---7---9---4----|
Pre-Chorus:
G|----------------|------------------|
D|----------------|------------------|
A|----------------|------------------|
E|-5-5-7-7-9-9-4-4|------------------|


Chorus:
G|--------------------------------|---------------------------------|
D|--------------------------------|---------------------------------|
A|--------------------------------|---------------------------------|
E|-5-5-5-5-7-7-7-7-9-9-9-9-4-4-4-4|-5-5-5-5-7-7-7-7-9-9-9-9-4-4-4-4-|


Verse:
G|----------------|------------------|
D|----------------|------------------|
A|----------------|------------------|
E|----------------|-5---7---9---4----|


Pre-Chorus:
G|----------------|------------------|
D|----------------|------------------|
A|----------------|------------------|
E|-5-5-7-7-9-9-4-4|------------------|


Chorus:
G|--------------------------------|---------------------------------|
D|--------------------------------|---------------------------------|
A|--------------------------------|---------------------------------|
E|-5-5-5-5-7-7-7-7-9-9-9-9-4-4-4-4|-5-5-5-5-7-7-7-7-9-9-9-9-4-4-4-4-|

Interlude:
G|--------------------------------|---------------------------------|
D|--------------------------------|---------------------------------|
A|--------------------------------|---------------------------------|
E|-5-5-5-5-7-7-7-7-9-9-9-9-4-4-4-4|-5-5-5-5-7-7-7-7-9-9-9-9-4-4-4-4-|


Verse:
G|----------------|------------------|
D|----------------|------------------|
A|----------------|------------------|
E|----------------|-5---7---9---4----|


Chorus: (x2)
G|--------------------------------|---------------------------------|
D|--------------------------------|---------------------------------|
A|--------------------------------|---------------------------------|
E|-5-5-5-5-7-7-7-7-9-9-9-9-4-4-4-4|-5-5-5-5-7-7-7-7-9-9-9-9-4-4-4-4-|

Almost there ...

Sign in to get your own page with links to favourite songs and more. You are just one click away...

Login with Facebook Login with Google