Guitar Tabs Explorer
Charlie Puth guitar tabs for See you again

See You Again tab


3.2 / 5 [6 votes]

See You Again tab by Charlie Puth

Guitar tabs

Print
-------------------------------------------------------------------------------
                             SEE YOU AGAIN - Charlie Puth
-------------------------------------------------------------------------------
Tabbed by:Julius Racelis
E chord diagramEE-mail:racelis27@gmail.com

Tuning:Standard. capo on 3rd fret

Intro:
e|-------------0--------------------0--------------------0-------------------|
B|---3--1---1h3--3-1-3----3--1---1h3--3-1-3----3--1---1h3--3-1-3---3--1------|
G|-0------0-------------0------0-------------0------0------------0------0----|
D|---------------------------------------------------------------------------|
A|----------------------3----------------------------------------3-----------|
E|-0------3--------------------3-------------0------3-------------------3----|
   Em chord diagramEmEm     G chord diagramGG             C chord diagramCC      G chord diagramGG             Em chord diagramEmEm     G chord diagramGG            C chord diagramCC      G chord diagramGG


Em chord diagramEmEm-G chord diagramGG-C chord diagramCC-G chord diagramGG  at the same pattern through the whole song.


************************************

| /   slide up
| \   slide down
| h   hammer-on
| p   pull-off
| ~   vibrato
| +   harmonic
| x   Mute note
| b   Bend
| pb  Pre-bend
| br  Bend release
| pbr Pre-bend release
| brb Bend release bend

Other versions of See You Again

- See you againChords
- See you again (Ver. 2)Chords

Comment this song and these guitar tabs

Do you have corrections, comments on the guitar tabs, thoughts about the song or a message to the author? Write them below.