Log in

One click and you are in

Login with Facebook Login with Google

Why sign up and log in

Guitar Tabs Explorer
Charlie Puth bass tabs for One call away

Bass tabs

In the music video the slide starts at 0:54

G|---------------------------------------|
D|---------------------------------------|
A|---------------------4-----------------|
E|---\6--------4-----------------2-------| x3

G|------------------------------------|
D|------------------------------------|
A|------------------------------------|
E|6----------------4------------------|

------------------------------------------------------------------------------
1:16
"I'm only one call away..."
G|---------------------------------------------------------------------------|
D|---------------------------------------------------------------------------|
A|4---------------------------------------------4--4----4-----------------4--|
E|---------4--4----4--6-------6-6---6--2-------------------4----4--4----4----|

G|---------------------------------------------------------------------------|
D|---------------------------------------------------------------------------|
A|----------------------------------------------2----2--2--------------------|
E|--4--4----4--6----6--6----6---2----4--4----4-------------------------------|

-------------------------------------------------------------------------------
1:37
"Come along with me..."
G|---------------------------------------|
D|---------------------------------------|
A|---------------------4-----------------|
E|---6--------4-----------------2--------| x5

G|---------------------------------------|
D|---------------------------------------|
A|---------------------------------------|
E|---(2)--------4------------------------|

(x)= maybe, I don't know

-------------------------------------------------------------------------------
2:09
"I'm only one call away...
G|---------------------------------------------------------------------------|
D|---------------------------------------------------------------------------|
A|4---------------------------------------------4--4----4-----------------4--|
E|---------4--4----4--6-------6-6---6--2-------------------4----4--4----4----|

G|---------------------------------------------------------------------------|
D|---------------------------------------------------------------------------|
A|----------------------------------------------2----2--2--------------------|
E|--4--4----4--6----6--6----6---2----4--4----4-------------------------------|

-------------------------------------------------------------------------------
2:29
"And when you're weak..."
G|------------------------------------------|
D|------------------------------------------|
A|-----------4--4----4----------------------|
E|--2-------------------4----4--4----4------| x3

2:45
"And when you feel like hope is gone..."
G|------------------------------------------|
D|------------------------------------------|
A|------------------------------------------|
E|--2----2--2----2--4----4----4-4-4-4-------|

--------------------------------------------------------------------------------------------------------------
2:50
"I'm only one..."
G|---------------------------------------------------------------------------|
D|---------------------------------------------------------------------------|
A|--4-------------------------------------------4----------------------------|
E|-----------4--------6----------------2-----------------4-------------------|

G|---------------------------------------------------------------------------|
D|---------------------------------------------------------------------------|
A|--4------------------------------------------------------------------------|
E|-----------4--------6----------------2-2-2-2-2-2-2-2-4-4-4-4-4-4-4-4-------|

-----------------------------------------------------------------------------------
3:12
"One call away..."
G|-------------------------------------------------------------------------------|
D|-------------------------------------------------------------------------------|
A|4----4--4-----------------------------------------4--4----4-----------------4--|
E|-------------4--4----4--6-------6-6---6--2-------------------4----4--4----4----|

G|---------------------------------------------------------------------------|
D|---------------------------------------------------------------------------|
A|----------------------------------------------2----2--2--------------------|
E|--4--4----4--6----6--6----6---2----4--4----4-------------------------------|

-------------------------------------------------------------------------------------
3:32
"I'm only one..."
G|-----------------------------|
D|-----------------------------|
A|--------------------4--------|
E|--2--------4-----------------| x2


************************************

Almost there ...

Sign in to get your own page with links to favourite songs and more. You are just one click away...

Login with Facebook Login with Google