Log in

One click and you are in

Login with Facebook Login with Google

Why sign up and log in

Guitar Tabs Explorer
Charlie Puth guitar tabs for One call away (Ver. 3)

Guitar tabs

Tuning: Standard (E A D G B E)


Intro:

e|-5---5--|-2---|-3---5--|-5---||--5---5---|-2---|--3---7---|--5----||
B|-7---5--|-2---|-3---7--|-5---||--7---5---|-2---|--3---7---|--7----||
G|-7---6--|-4---|-4---7--|-6---||--7---6---|-4---|--4---9---|--7----||
D|-x---7--|-4---|-5---x--|-7---||------7---|-4---|--5---9---|-------||
A|-x---x--|-2---|-x---x--|-x---||----------|-2---|------7---|-------||
E|-x---x--|-2---|-x---x--|-x---||----------|-2---|------7---|-------||
Verse 1:

e|-2---5---5---3---2---5---5---|--3--|---2---5---5---3---||
B|-2---5---7---3---2---5---7---|--3--|---2---5---7---3---||
G|-4---6---7---4---4---6---7---|--4--|---4---6---7---4---||
D|-4---7-------5---4---7-------|--5--|---4---7-------5---||
A|-2---------------2-----------|-----|---2---------------||
E|-2---------------2-----------|-----|---2---------------||


Pre-Chorus:

e|--3----|---5--------------------------------------------||
B|--4----|---5--------------------------------------------||
G|--5----|---6--------------------------------------------||
D|-------|---7--------------------------------------------||
A|-------|------------------------------------------------||
E|-------|------------------------------------------------||


Chorus:

e|-5---5--|-2---|-3---5--|-5---||--5---5---|-2---|--3---7---|--5----||
B|-7---5--|-2---|-3---7--|-5---||--7---5---|-2---|--3---7---|--7----||
G|-7---6--|-4---|-4---7--|-6---||--7---6---|-4---|--4---9---|--7----||
D|-x---7--|-4---|-5---x--|-7---||------7---|-4---|--5---9---|-------||
A|-x---x--|-2---|-x---x--|-x---||----------|-2---|------7---|-------||
E|-x---x--|-2---|-x---x--|-x---||----------|-2---|------7---|-------||

Verse 2:

e|-2---5---5---3---2---5---5---|--3--|---2---5---5---3---||
B|-2---5---7---3---2---5---7---|--3--|---2---5---7---3---||
G|-4---6---7---4---4---6---7---|--4--|---4---6---7---4---||
D|-4---7-------5---4---7-------|--5--|---4---7-------5---||
A|-2---------------2-----------|-----|---2---------------||
E|-2---------------2-----------|-----|---2---------------||


Pre-Chorus:

e|--3----|---5-----------------------------------------||
B|--4----|---5-----------------------------------------||
G|--5----|---6-----------------------------------------||
D|-------|---7-----------------------------------------||
A|-------|---------------------------------------------||
E|-------|------------------------------------------------||


Chorus:

e|-5---5--|-2---|-3---5--|-5---||--5---5---|-2---|--3---7---|--5----||
B|-7---5--|-2---|-3---7--|-5---||--7---5---|-2---|--3---7---|--7----||
G|-7---6--|-4---|-4---7--|-6---||--7---6---|-4---|--4---9---|--7----||
D|-x---7--|-4---|-5---x--|-7---||------7---|-4---|--5---9---|-------||
A|-x---x--|-2---|-x---x--|-x---||----------|-2---|------7---|-------||
E|-x---x--|-2---|-x---x--|-x---||----------|-2---|------7---|-------||


Bridge:

e|--3---2---5---3---2---5---3---2---5---|---3---|---5---||
B|--3---2---5---3---2---5---3---2---5---|---3---|---5---||
G|--4---4---6---4---4---6---4---4---6---|---4---|---6---||
D|--5---4---7---5---4---7---5---4---7---|---5---|---7---||
A|------2-----------2-----------2-------|-------|-------||
E|------2-----------2-----------2-------|-------|-------||


Chorus:

e|-5---5--|-2---|-3---5--|-5---||--5---5---|-2---|--3---7---|--5----|-5-|
B|-7---5--|-2---|-3---7--|-5---||--7---5---|-2---|--3---7---|--7----|-7-|
G|-7---6--|-4---|-4---7--|-6---||--7---6---|-4---|--4---9---|--7----|-7-|
D|-x---7--|-4---|-5---x--|-7---||------7---|-4---|--5---9---|-------|---|
A|-x---x--|-2---|-x---x--|-x---||----------|-2---|------7---|-------|---|
E|-x---x--|-2---|-x---x--|-x---||----------|-2---|------7---|-------|---|

Other versions of One Call Away

One call awayChords
One call away (Ver. 2)Chords
One call away (Ver. 3)Chords
One call away ukuleleChords
One call awayTabs
One call away (Ver. 2)Tabs

Almost there ...

Sign in to get your own page with links to favourite songs and more. You are just one click away...

Login with Facebook Login with Google