Log in

One click and you are in

Login with Facebook Login with Google

Why sign up and log in

Guitar Tabs Explorer
Charlie Puth bass tabs for Mother

Bass tabs with lyrics

Tuning: Standard (E A D G)


Intro:
G|-----------------------------------|
D|-----------------------------------|
A|9-9------9-9------7-7------6-6-----|
E|----9-11------7-9------7-9-----9-7-|
Verse 1:

He's such a nice boy, so well-mannered
He's so much better than the last one you brought around
Please and thank you, everything matters
I'm gonna make sure that she knows I'm the best she's found

G|-----------------------------------|----------------------------------------|
D|-----------------------------------|------------------------------6-6--8-6--|
A|9-9------9-9------7-7------6-6-----|9-9------9-9---------------6------------|
E|----9-11------7-9------7-9-----9-7-|----9-11------9-11--9--9--7-------------| x2


Pre-Chorus:

The moment she walks out that door
I'm not pretending anymore


Chorus:
If your mother knew all of the things that we do
If your mother knew all the things we do
If your mother knew, she'd keep me so far from you
If your mother knew all the things we do

G|-----------------------------------|----------------------------------------|
D|-----------------------------------|------------------------------6-6--8-6--|
A|9-9------9-9------7-7------6-6-----|9-9------9-9---------------6------------|
E|----9-11------7-9------7-9-----9-7-|----9-11------9-11--9--9--7-------------| x2

Verse 2:
Sneak out the window, bed stuffed with pillows
I'll be waiting in the car right around the block

G|-------------------------------------------------------|
D|-----------------------------------------------6-6--8-6|
A|7-7-----6-6------9-9------9-9---------------6----------|
E|----7-9--------------9-11------9-11--9-9---7-----------|

Back of the Benzo (Back of the Benzo)
More than a friend zone (More than a friend zone)
We've been hiding since the time they forgot to knock

G|-----------------------------------|----------------------------------------|
D|-----------------------------------|------------------------------6-6--8-6--|
A|9-9------9-9------7-7------6-6-----|9-9------9-9---------------6------------|
E|----9-11------7-9------7-9-----9-7-|----9-11------9-11--9--9--7-------------|


Pre-Chorus:

The moment she walks out that door (She walks out the door)
I'm not pretending anymore


Chorus:

If your mother knew all of the things that we do (Yeah)
If your mother knew (If your mother)
All the things we do (All that we do)
If your mother knew, she'd keep me so far from you
If your mother knew (Oh) all the things we do

G|-----------------------------------|----------------------------------------|
D|-----------------------------------|------------------------------6-6--8-6--|
A|9-9------9-9------7-7------6-6-----|9-9------9-9---------------6------------|
E|----9-11------7-9------7-9-----9-7-|----9-11------9-11--9--9--7-------------| x2

Post-Chorus:

Next time that she sees me
She gon' act like she don't know me
'Cause she knows all of the story
Now your daddy wants to kill me (Ah)
Next time that she sees me
She gon' act like she don't know me
'Cause she knows all of the story
Now your daddy wants to kill me


G|-----------------------------------|----------------------------------------|
D|-----------------------------------|------------------------------6-6--8-6--|
A|9-9------9-9------7-7------6-6-----|9-9------9-9---------------6------------|
E|----9-11------7-9------7-9-----9-7-|----9-11------9-11--9--9--7-------------| x2

(Yeah, yeah)
If your mother only knew (Ooh)


Bridge: //sidechained and quiet so harder to discern a tone, but this works\\


    The  mo - ment she  walks out that door I'm  not  pre - ten -ding  a - ny - more

G|-------------------------------------------------------------------------------------------------|
D|-------------------------------------------------------------------------------------------------|
A|2-----2-----2-----2-----4-----4-----4-----4-----5-----5-----5-----5-----7-----7-----7-----7-----9|
E|-------------------------------------------------------------------------------------------------|
                                     ^________triplets________^

If your mother knew all of the things that we do


Post-Chorus:

If your mother knew all the things we do (We do)
If your mother knew, she'd keep me so far from you

G|----------------------------------------|---------------------------------|
D|------------------------------6-6--8-6--|---------------------------------|
A|9-9------9-9---------------6------------|9-9------9-9------7-7-----6-6----|
E|----9-11------9-11--9-9---7-------------|----9-11------7-9-----7-9-----9-7|


If your mother knew all the things we do (From you, oh)

G|----------------------------------------|
D|------------------------------6-6--8-6--|
A|9-9------9-9---------------6------------|
E|----9-11------9-11--9-9---7-------------|


Next time that she sees me (Hey)
She gon' act like she don't know me (Does she know me)
'Cause she knows all of the story
Now your daddy wants to kill me (Yeah)

Next time that she sees me
She gon' act like she don't know me
'Cause she knows all of the story
Now your daddy wants to kill me (Yeah)

G|------------------------------------|------------------------------------|
D|------------------------------------|---------------------------6-6--8-6-|
A|9-9------9-9------7-7------6-6------|9-9------9-9-------------6----------| x2
E|----9-11------7-9------7-9-----9-7--|----9-11-----9-11--9-9--7-----------|


Outro:

If your mother knew all the things we do
If your mother knew all the things we do
If your mother knew all of the things that we do

Almost there ...

Sign in to get your own page with links to favourite songs and more. You are just one click away...

Login with Facebook Login with Google