Guitar Tabs Explorer
Charlie Puth bass tabs for Marvin gaye

Marvin Gaye bass tab


Be the first to rate

Marvin Gaye bass tab by Charlie Puth

Bass tabs with lyrics

Print

Charlie Puth ? Marvin Gaye ft. Meghan Trainor
Tabbed by Twan

                                    E
      Let?s Marvin Gaye and get it on
G|--------------------------------|--------------------------------|
D|--------------------------------|--------------------------------|
A|--------------------------------|-7--------7------------------6--|
E|--------------------------------|-----------------------7--------|

                                    C#m
        You got the healing that I want
G|--------------------------------|--------------------------------|
D|--------------------------------|--------------------------------|
A|-7----------7-------7-----6-----|--4--------4--------------------|
E|--------------------------------|--------------------4------7----|

                                    A
      Just like they say it in the song          Until the dawn,
G|--------------------------------|--------------------------------|
D|--------------------------------|--------------------------------|
A|-4----------4-------4-----------|----------------------------4---|
E|--------------------------7-----|-5---------5---------5----------|

  B                                 E
      let?s Marvin Gaye and get it on
G|--------------------------------|--------------------------------|
D|--------------------------------|--------------------------------|
A|---------------------------6----|-7---------7---------7----------|
E|--7--------7--------7-----------|----------------------------5---|

[VERSE]                             E
      We got this king-size to ourselves
G|--------------------------------|--------------------------------|
D|--------------------------------|--------------------------------|
A|--------------------------------|-7--------7------------------6--|
E|--7-----------------------------|-----------------------7--------|

                                    C#m
    Don't have to share with no one else
G|--------------------------------|--------------------------------|
D|--------------------------------|--------------------------------|
A|-7----------7-------7-----6-----|--4--------4--------------------|
E|--------------------------------|--------------------4------7----|
                                     A
     Don't keep your secrets to yourself
G|--------------------------------|--------------------------------|
D|--------------------------------|--------------------------------|
A|-4----------4-------4-----------|----------------------------4---|
E|--------------------------7-----|-5---------5---------5----------|
   B                                E
         It's karma sutra show and tell
G|--------------------------------|--------------------------------|
D|--------------------------------|--------------------------------|
A|---------------------------6----|-7---------7---------7----------|
E|--7--------7--------7-----------|----------------------------5---|

                                     G#
                           Wo  ha  hoo         There?s
G|--------------------------------|--------------------------------|
D|--------------------------------|--------------------------------|
A|--------------------------------|----------------------------6---|
E|--7-------------------0---2---3-|--4-----------4-----------------|

G#                                 C#m
         loving in your eyes       That pulls me closer
G|--------------------------------|--------------------------------|
D|--------------------------------|--------------------------------|
A|-----------------------2------3-|-4--------4-----------------2---|
E|-4------4------4----------------|---------------------4----------|

                                    F#
                         It's so subtle,          I'm in trouble
G|--------------------------------|--------------------------------|
D|--------------------------------|--------------------------------|
A|--4------4------4---------------|---------------4----------------|
E|-----------------------4------3-|--2----2---------------2-----2--|

        F#m                         B
But I'd love to be in trouble with you
G|--------------------------------|--------------------------------|
D|--------------------------------|--------------------------------|
A|----------------------------4---|--2-----------------------------|
E|--2------2-------2-----5--------|--------------------------------|


[CHORUS]                            E
      Let?s Marvin Gaye and get it on
G|--------------------------------|--------------------------------|
D|--------------------------------|--------------------------------|
A|--------------------------------|-7--------7------------------6--|
E|--------------------------------|-----------------------7--------|

                                    C#m
        You got the healing that I want
G|--------------------------------|--------------------------------|
D|--------------------------------|--------------------------------|
A|-7----------7-------7-----6-----|--4--------4--------------------|
E|--------------------------------|--------------------4------7----|

                                    A
      Just like they say it in the song          Until the dawn,
G|--------------------------------|--------------------------------|
D|--------------------------------|--------------------------------|
A|-4----------4-------4-----------|----------------------------4---|
E|--------------------------7-----|-5---------5---------5----------|

  B                                 E
      let?s Marvin Gaye and get it on
G|--------------------------------|--------------------------------|
D|--------------------------------|--------------------------------|
A|---------------------------6----|-7---------7--------------------|
E|--7--------7--------7-----------|---------------------5------7---|

  B                                 E
           You got to give it up to me
G|--------------------------------|--------------------------------|
D|--------------------------------|--------------------------------|
A|--------------------------------|-7---------7----------------6---|
E|--------------------------------|---------------------7----------|

                                    C#m
        I'm screaming mercy, mercy please
G|--------------------------------|--------------------------------|
D|--------------------------------|--------------------------------|
A|-7----------7-------7-----6-----|--4--------4--------------------|
E|--------------------------------|--------------------4------7----|

                                    A
      Just like they say it in the song            Until the dawn,
G|--------------------------------|--------------------------------|
D|--------------------------------|--------------------------------|
A|-4----------4-------4-----------|----------------------------4---|
E|--------------------------7-----|-5---------5---------5----------|

  B                                 E
      let?s Marvin Gaye and get it on
G|--------------------------------|--------------------------------|
D|--------------------------------|--------------------------------|
A|---------------------------6----|-7---------7---------7----------|
E|--7--------7--------7-----------|----------------------------5---|


[VERSE]
  B                                 E
       And when you leave me all alone
G|--------------------------------|--------------------------------|
D|--------------------------------|--------------------------------|
A|--------------------------------|--7---------------7----------7--|
E|--7-----------------------------|--------------------------------|

  E                                C#m
        I'm like a stray without a home
G|--------------------------------|--------------------------------|
D|--------------------------------|--------------------------------|
A|--7---------7--------7----------|--4---------------4----------4--|
E|--------------------------------|--------------------------------|

                                    A
          I'm like a dog without a bone
G|--------------------------------|--------------------------------|
D|--------------------------------|--------------------------------|
A|--4---------4--------4----------|--------------------------------|
E|--------------------------------|--5---------------5----------5--|

  B                                 E
            I just want you for my own
G|--------------------------------|--------------------------------|
D|--------------------------------|--------------------------------|
A|--------------------------------|--7------------------------------|
E|--7---------7--------7----------|--------------------------------|
   E
                 I got to have you babe
G|--------------------------------|--------------------------------|
D|--------------------------------|--------------------------------|
A|--------------------------------|--------------------------------|
E|--------------------------------|--------------------------------|

                                     G#
                           Wo  ha  hoo         There?s
G|--------------------------------|--------------------------------|
D|--------------------------------|--------------------------------|
A|--------------------------------|----------------------------6---|
E|--7-------------------0---2---3-|--4-----------4-----------------|

G#                                 C#m
         loving in your eyes       That pulls me closer
G|--------------------------------|--------------------------------|
D|--------------------------------|--------------------------------|
A|-----------------------2------3-|-4--------4-----------------2---|
E|-4------4------4----------------|---------------------4----------|

                                    F#
                         It's so subtle,          I'm in trouble
G|--------------------------------|--------------------------------|
D|--------------------------------|--------------------------------|
A|--4------4------4---------------|---------------4----------------|
E|-----------------------4------3-|--2----2---------------2-----2--|

        F#m                         B
But I'd love to be in trouble with you
G|--------------------------------|--------------------------------|
D|--------------------------------|--------------------------------|
A|----------------------------4---|--2-----------------------------|
E|--2------2-------2-----5--------|--------------------------------|


[CHORUS]                            E
      Let?s Marvin Gaye and get it on
G|--------------------------------|--------------------------------|
D|--------------------------------|--------------------------------|
A|--------------------------------|-7--------7------------------6--|
E|--------------------------------|-----------------------7--------|

                                    C#m
        You got the healing that I want
G|--------------------------------|--------------------------------|
D|--------------------------------|--------------------------------|
A|-7----------7-------7-----6-----|--4--------4--------------------|
E|--------------------------------|--------------------4------7----|

                                    A
      Just like they say it in the song          Until the dawn,
G|--------------------------------|--------------------------------|
D|--------------------------------|--------------------------------|
A|-4----------4-------4-----------|----------------------------4---|
E|--------------------------7-----|-5---------5---------5----------|

  B                                 E
      let?s Marvin Gaye and get it on babe
G|--------------------------------|--------------------------------|
D|--------------------------------|--------------------------------|
A|---------------------------6----|-7---------7----------------6---|
E|--7--------7--------7-----------|---------------------7----------|

  B                                 E
           You got to give it up to me
G|--------------------------------|--------------------------------|
D|--------------------------------|--------------------------------|
A|---------------------------6----|-7---------7---------7----------|
E|--7--------7--------7-----------|----------------------------5---|

                                    C#m
        I'm screaming mercy, mercy please
G|--------------------------------|--------------------------------|
D|--------------------------------|--------------------------------|
A|-7----------7-------7-----6-----|--4--------4--------------------|
E|--------------------------------|--------------------4------7----|

                                    A
      Just like they say it in the song            Until the dawn,
G|--------------------------------|--------------------------------|
D|--------------------------------|--------------------------------|
A|-4----------4-------4-----------|----------------------------4---|
E|--------------------------7-----|-5---------5---------5----------|

  B                                 E
      let?s Marvin Gaye and get it on                Oh ho ho ho ho
G|--------------------------------|--------------------------------|
D|--------------------------------|--------------------------------|
A|---------------------------6----|-7---------7---------6------4---|
E|--7--------7--------7-----------|--------------------------------|

                                    A
      Just like they say it in the song            Until the dawn,
G|--------------------------------|--------------------------------|
D|--------------------------------|--------------------------------|
A|-4----------4-------4-----------|----------------------------4---|
E|--------------------------7-----|-5---------5---------5----------|

  B                                 E
      let?s Marvin Gaye and get it on
G|--------------------------------|--------------------------------|
D|--------------------------------|--------------------------------|
A|---------------------------6----|-7---------7--------------------|
E|--7--------7--------7-----------|---------------------5------7---|

Comment this song and these bass tabs

Do you have corrections, comments on the bass tabs, thoughts about the song or a message to the author? Write them below.