Guitar Tabs Explorer
Charlie Puth bass tabs for How long

How Long bass tab


4.5 / 5 [2 votes]

How Long bass tab by Charlie Puth

Bass tabs

Print

Intro: 0:00
G|-----------------------------------------------------|
D|-----------------------------------------------------|
A|-4---4-2---2-0---0-2-2--3-4---4-2---2-0---0---2-3----|
E|--------------------------------------------4-----4--|

Verse: 0:09 "i'll admit, i was wrong..."
G|-----------------------------------------------------|
D|-----------------------------------------------------|
A|-4---4-2---2-0---0-2-2--3-4---4-2---2-0---0---2-3----|
E|--------------------------------------------4-----4--|

G|---------------------------------------------------|
D|---------------------------------------------------|
A|-4---4-2---2-0---0-2-2--3-4---4-2---2--0-0---------|
E|-------------------------------------------4-4-3-3-|

Pre-Chorus: 0:26 "she said, 'boy, tell me honestly...'"
G|-------------------------------------------------------------------------------|
D|-------------------------------------------------------------------------------|
A|-----4------------------------4-------------4-4--------------------------------|
E|-2-----2---3-4---4-4-4--3-2-----2---3-4---4-----4-4---2~--4~--5~--4~--4/10\4---|

Chorus: 0:43 "how long has this been going on?"
G|----------------------------------------------------------------------------|
D|----------------------------------------------------------------------------|
A|-4-4--2-2--0-0--2----4---4-2---2-0---0---2-3-----4---4-2---2-0---0-2-2--3-4-|
E|---------------------------------------4-----4------------------------------|

G|---------------------------------------------------------------------------------|
D|---------------------------------------------------------------------------------|
A|-4---4-2---2-0---0---2-3-----4---4-2---2-0---0-2-2--3-4---4-2---2-0---0---2-3----|
E|-------------------4-----4----------------------------------------------4-----4--|

Verse: 1:11 "i'll admit, it's my fault..."
G|-----------------------------------------------------------------------------|
D|-----------------------------------------------------------------------------|
A|-4---4-2---2-0--pause--4---4-2---2-0---0---2-3-----4---4-2---2-0---0-2-2--3--|
E|-----------------------------------------4-----4-----------------------------|

G|-----------------------------|
D|-----------------------------|
A|--4---4-2---2-0---0---2-3----|
E|--------------------4-----4--|

Pre-Chorus: 1:27 "she said, 'boy, tell me honestly...'"
G|-------------------------------------------------------------------------------|
D|-------------------------------------------------------------------------------|
A|-----4------------------------4-------------4-4--------------------------------|
E|-2-----2---3-4---4-4-4--3-2-----2---3-4---4-----4-4---2~--4~--5~--4~--4/10\4---|

Chorus: 1:44 "how long has this been going on?"
G|---------------------------------------------------------------------------|
D|---------------------------------------------------------------------------|
A|-4-4--2-2--0-0--2----4---4-2---2-0---0---2-3-----4---4-2---2-0---0-2-2--3--|
E|---------------------------------------4-----4-----------------------------|

G|---------------------------------------------------------------------------------|
D|---------------------------------------------------------------------------------|
A|-4---4-2---2-0---0---2-3-----4---4-2---2-0---0-2-2--3-4---4-2---2-0---0---2-3----|
E|-------------------4-----4----------------------------------------------4-----4--|

Bridge: 2:20 "she said, 'boy, tell me honestly...'"
rest until 2:28
G|----------------------------------------|
D|----------------------------------------|
A|----------------------------------------|
E|----------2~--4~--5~--4~--4/10\4--------|

Chorus: 2:37 "how long has this been going on?"
rest until 2:43
G|---------------------------------------------------------------------------|
D|---------------------------------------------------------------------------|
A|------------4---4-2---2-0---0---2-3-----4---4-2---2-0---0-2-2--3-----------|
E|--------------------------4-----4------------------------------------------|

G|-----------------------------------------------------------------------------------|
D|-----------------------------------------------------------------------------------|
A|-4---4-2---2-0---0-------------4---4-2---2-0---0-2-2--3-4---4-2---2-0---0---2-3----|
E|---------------------4/10\4-----------------------------------------------4-----4--|

Outro: 3:05
G|-------------------------------------------------------|
D|-------------------------------------------------------|
A|--4---4-2---2-0---0-2-2--3-4---4-2---2-0---0---2-3-----|
E|---------------------------------------------4-----4---|


************************************

| /  Slide up
| \  Slide down
| ~  Vibrato

Comment this song and these bass tabs

Do you have corrections, comments on the bass tabs, thoughts about the song or a message to the author? Write them below.