Guitar Tabs Explorer
Charlie Puth bass tabs for How deep is your love

How Deep Is Your Love bass tab


Be the first to rate

How Deep Is Your Love bass tab by Charlie Puth

Bass tabs

Print

Intro:
G|-------------------|
D|------------------*|
A|------------------*|x3
E|7---7---7---7--5h7-|

G|-------------------|
D|-------------------|
A|----------------9--|
E|7---7---7---7------|

Verse:
G|---------|-----------|-----------|--------------|--------|---------|---------|
D|---------|-----------|-----------|--------------|--------|---------|---------|
A|10-------|10/7-------|7/10-------|10/7---7/12-9-|--------|10-------|7---12-9-|
E|---------|-----------|-----------|--------------|7-------|---------|---------|

G|---------|---------|---------|
D|---------|---------|---------|
A|-----12-9|10-------|7---12---|
E|7--------|---------|---------|

Pre-Chorus:
G|----------------|   |----------------|   |----------------|
D|----------------|   |----------------|   |----------------|
A|----------------|x2 |77-7--7---7---7-|x2 |----------------|x2
E|33-3--3---3---3-|   |----------------|   |33-3--3---3---3-|

G|-------------------|--------|
D|-------------------|--------|
A|77-7--7---7---7-12-|--------|
E|-------------------|--------|

Chorus:
G|------------------|-------------------|-------------------|-------------|
D|------------------|-------------------|-------------------|-------------|
A|-----------5h7p5--|------------5h7p5--|------------5h7p5--|-------------|x2
E|-7-7--7--7-7----7-|-3-3--3--3-7-----7-|-0-0--0--0-7-----7-|-5-5--2-2-2--|

Verse:
G|---------|-----------|-----------|--------------|--------|---------|---------|
D|---------|-----------|-----------|--------------|--------|---------|---------|
A|10-------|10/7-------|7/10-------|10/7---7/12-9-|--------|10-------|7---12-9-|
E|---------|-----------|-----------|--------------|7-------|---------|---------|

G|---------|---------|---------|
D|---------|---------|---------|
A|-----12-9|10-------|7---12---|
E|7--------|---------|---------|

Pre-Chorus:
G|----------------|   |----------------|   |----------------|
D|----------------|   |----------------|   |----------------|
A|----------------|x2 |77-7--7---7---7-|x2 |----------------|x2
E|33-3--3---3---3-|   |----------------|   |33-3--3---3---3-|

G|-------------------|--------|
D|-------------------|--------|
A|77-7--7---7---7-12-|--------|
E|-------------------|--------|

Chorus:
G|------------------|-------------------|-------------------|-------------|
D|------------------|-------------------|-------------------|-------------|
A|-----------5h7p5--|------------5h7p5--|------------5h7p5--|-------------|x2
E|-7-7--7--7-7----7-|-3-3--3--3-7-----7-|-0-0--0--0-7-----7-|-5-5--2-2-2--|

Bridge:
G|--------|----------|---------|------------------|----------|---------|
D|--------|----------|---------|9--9-11-12-11-9---|----------|---------|
A|-------9|10----10/7|7---12---|----------------9-|10----10/7|7---12---|
E|7-------|----------|---------|------------------|----------|---------|

Chorus:
G|------------------|-------------------|-------------------|-------------|
D|------------------|-------------------|-------------------|-------------|
A|-----------5h7p5--|------------5h7p5--|------------5h7p5--|-------------|
E|-7-7--7--7-7----7-|-3-3--3--3-7-----7-|-0-0--0--0-7-----7-|-5-5--2-2-2--|

G|------------------|-------------------|------------7h9p7--|------------|
D|------------------|-------------------|-----------9-----9-|------------|
A|-----------5h7p5--|------------5h7p5--|-7-7--7--7---------|------------|
E|-7-7--7--7-7----7-|-3-3--3--3-7-----7-|-------------------|-5--3--2---5|

G|------------------|-------------------|-------------------|-------------|
D|------------------|-------------------|-------------------|-------------|
A|-----------5h7p5--|------------5h7p5--|------------5h7p5--|-------------|
E|-7-7--7--7-7----7-|-3-3--3--3-7-----7-|-0-0--0--0-7-----7-|-5-5--2-2-2--|

G|------------------|-------------------|-------------------|-------------|
D|------------------|-------------------|-------------------|-------------|
A|-----------5h7p5--|------------5h7p5--|------------5h7p5--|-------------|
E|-7-7--7--7-7----7-|-3-3--3--3-7-----7-|-0-0--0--0-7-----7-|-5--3--2--5-7|



************************************

| *  Natural harmonic
| h  Hammer-on
| /  Slide up
| x  Dead note
| p  Pull-off

Comment this song and these bass tabs

Do you have corrections, comments on the bass tabs, thoughts about the song or a message to the author? Write them below.